  0
SECTION
  2
HEADER
  9
$ACADVER
  1
AC1015
  9
$ACADMAINTVER
 70
     6
  9
$DWGCODEPAGE
  3
ANSI_1252
  9
$INSBASE
 10
0.0
 20
0.0
 30
0.0
  9
$EXTMIN
 10
-22.0
 20
-22.0
 30
0.0
  9
$EXTMAX
 10
22.0
 20
22.0
 30
0.0
  9
$LIMMIN
 10
0.0
 20
0.0
  9
$LIMMAX
 10
420.0
 20
297.0
  9
$ORTHOMODE
 70
     0
  9
$REGENMODE
 70
     1
  9
$FILLMODE
 70
     1
  9
$QTEXTMODE
 70
     0
  9
$MIRRTEXT
 70
     1
  9
$LTSCALE
 40
1.0
  9
$ATTMODE
 70
     1
  9
$TEXTSIZE
 40
3.5
  9
$TRACEWID
 40
1.0
  9
$TEXTSTYLE
  7
Standard
  9
$CLAYER
  8
0
  9
$CELTYPE
  6
ByLayer
  9
$CECOLOR
 62
   256
  9
$CELTSCALE
 40
1.0
  9
$DISPSILH
 70
     0
  9
$DIMSCALE
 40
1.0
  9
$DIMASZ
 40
3.302
  9
$DIMEXO
 40
1.0
  9
$DIMDLI
 40
3.75
  9
$DIMRND
 40
0.0
  9
$DIMDLE
 40
0.0
  9
$DIMEXE
 40
1.0
  9
$DIMTP
 40
0.0
  9
$DIMTM
 40
0.0
  9
$DIMTXT
 40
3.5
  9
$DIMCEN
 40
2.5
  9
$DIMTSZ
 40
0.0
  9
$DIMTOL
 70
     0
  9
$DIMLIM
 70
     0
  9
$DIMTIH
 70
     1
  9
$DIMTOH
 70
     1
  9
$DIMSE1
 70
     0
  9
$DIMSE2
 70
     0
  9
$DIMTAD
 70
     1
  9
$DIMZIN
 70
     0
  9
$DIMBLK
  1

  9
$DIMASO
 70
     1
  9
$DIMSHO
 70
     1
  9
$DIMPOST
  1

  9
$DIMAPOST
  1

  9
$DIMALT
 70
     0
  9
$DIMALTD
 70
     3
  9
$DIMALTF
 40
0.0393700787
  9
$DIMLFAC
 40
1.0
  9
$DIMTOFL
 70
     1
  9
$DIMTVP
 40
0.0
  9
$DIMTIX
 70
     0
  9
$DIMSOXD
 70
     0
  9
$DIMSAH
 70
     0
  9
$DIMBLK1
  1

  9
$DIMBLK2
  1

  9
$DIMSTYLE
  2
ISO-25
  9
$DIMCLRD
 70
     0
  9
$DIMCLRE
 70
     0
  9
$DIMCLRT
 70
     0
  9
$DIMTFAC
 40
1.0
  9
$DIMGAP
 40
1.524
  9
$DIMJUST
 70
     0
  9
$DIMSD1
 70
     0
  9
$DIMSD2
 70
     0
  9
$DIMTOLJ
 70
     0
  9
$DIMTZIN
 70
     0
  9
$DIMALTZ
 70
     0
  9
$DIMALTTZ
 70
     0
  9
$DIMUPT
 70
     0
  9
$DIMDEC
 70
     2
  9
$DIMTDEC
 70
     2
  9
$DIMALTU
 70
     2
  9
$DIMALTTD
 70
     3
  9
$DIMTXSTY
  7
Standard
  9
$DIMAUNIT
 70
     0
  9
$DIMADEC
 70
     2
  9
$DIMALTRND
 40
0.0
  9
$DIMAZIN
 70
     0
  9
$DIMDSEP
 70
    44
  9
$DIMATFIT
 70
     3
  9
$DIMFRAC
 70
     0
  9
$DIMLDRBLK
  1

  9
$DIMLUNIT
 70
     2
  9
$DIMLWD
 70
    -2
  9
$DIMLWE
 70
    -2
  9
$DIMTMOVE
 70
     0
  9
$LUNITS
 70
     2
  9
$LUPREC
 70
     2
  9
$SKETCHINC
 40
1.0
  9
$FILLETRAD
 40
10.0
  9
$AUNITS
 70
     0
  9
$AUPREC
 70
     2
  9
$MENU
  1
.
  9
$ELEVATION
 40
0.0
  9
$PELEVATION
 40
0.0
  9
$THICKNESS
 40
0.0
  9
$LIMCHECK
 70
     0
  9
$CHAMFERA
 40
10.0
  9
$CHAMFERB
 40
10.0
  9
$CHAMFERC
 40
20.0
  9
$CHAMFERD
 40
0.0
  9
$SKPOLY
 70
     0
  9
$TDCREATE
 40
2457332.394377408
  9
$TDUCREATE
 40
2457332.352710741
  9
$TDUPDATE
 40
2457332.394688507
  9
$TDUUPDATE
 40
2457332.35302184
  9
$TDINDWG
 40
0.0000000116
  9
$TDUSRTIMER
 40
0.0000000116
  9
$USRTIMER
 70
     1
  9
$ANGBASE
 50
0.0
  9
$ANGDIR
 70
     0
  9
$PDMODE
 70
     0
  9
$PDSIZE
 40
-1.0
  9
$PLINEWID
 40
0.0
  9
$SPLFRAME
 70
     0
  9
$SPLINETYPE
 70
     6
  9
$SPLINESEGS
 70
     8
  9
$HANDSEED
  5
1B1
  9
$SURFTAB1
 70
     6
  9
$SURFTAB2
 70
     6
  9
$SURFTYPE
 70
     6
  9
$SURFU
 70
     6
  9
$SURFV
 70
     6
  9
$UCSBASE
  2

  9
$UCSNAME
  2

  9
$UCSORG
 10
0.0
 20
0.0
 30
0.0
  9
$UCSXDIR
 10
1.0
 20
0.0
 30
0.0
  9
$UCSYDIR
 10
0.0
 20
1.0
 30
0.0
  9
$UCSORTHOREF
  2

  9
$UCSORTHOVIEW
 70
     0
  9
$UCSORGTOP
 10
0.0
 20
0.0
 30
0.0
  9
$UCSORGBOTTOM
 10
0.0
 20
0.0
 30
0.0
  9
$UCSORGLEFT
 10
0.0
 20
0.0
 30
0.0
  9
$UCSORGRIGHT
 10
0.0
 20
0.0
 30
0.0
  9
$UCSORGFRONT
 10
0.0
 20
0.0
 30
0.0
  9
$UCSORGBACK
 10
0.0
 20
0.0
 30
0.0
  9
$PUCSBASE
  2

  9
$PUCSNAME
  2

  9
$PUCSORG
 10
0.0
 20
0.0
 30
0.0
  9
$PUCSXDIR
 10
1.0
 20
0.0
 30
0.0
  9
$PUCSYDIR
 10
0.0
 20
1.0
 30
0.0
  9
$PUCSORTHOREF
  2

  9
$PUCSORTHOVIEW
 70
     0
  9
$PUCSORGTOP
 10
0.0
 20
0.0
 30
0.0
  9
$PUCSORGBOTTOM
 10
0.0
 20
0.0
 30
0.0
  9
$PUCSORGLEFT
 10
0.0
 20
0.0
 30
0.0
  9
$PUCSORGRIGHT
 10
0.0
 20
0.0
 30
0.0
  9
$PUCSORGFRONT
 10
0.0
 20
0.0
 30
0.0
  9
$PUCSORGBACK
 10
0.0
 20
0.0
 30
0.0
  9
$USERI1
 70
     0
  9
$USERI2
 70
     0
  9
$USERI3
 70
     0
  9
$USERI4
 70
     0
  9
$USERI5
 70
     0
  9
$USERR1
 40
0.0
  9
$USERR2
 40
0.0
  9
$USERR3
 40
0.0
  9
$USERR4
 40
0.0
  9
$USERR5
 40
0.0
  9
$WORLDVIEW
 70
     1
  9
$SHADEDGE
 70
     3
  9
$SHADEDIF
 70
    70
  9
$TILEMODE
 70
     0
  9
$MAXACTVP
 70
    64
  9
$PINSBASE
 10
0.0
 20
0.0
 30
0.0
  9
$PLIMCHECK
 70
     0
  9
$PEXTMIN
 10
-22.0
 20
-22.0
 30
0.0
  9
$PEXTMAX
 10
22.0
 20
22.0
 30
0.0
  9
$PLIMMIN
 10
0.0
 20
0.0
  9
$PLIMMAX
 10
420.0
 20
297.0
  9
$UNITMODE
 70
     0
  9
$VISRETAIN
 70
     1
  9
$PLINEGEN
 70
     0
  9
$PSLTSCALE
 70
     1
  9
$TREEDEPTH
 70
  3020
  9
$CMLSTYLE
  2
Standard
  9
$CMLJUST
 70
     0
  9
$CMLSCALE
 40
20.0
  9
$PROXYGRAPHICS
 70
     1
  9
$MEASUREMENT
 70
     1
  9
$CELWEIGHT
370
    -1
  9
$ENDCAPS
280
     0
  9
$JOINSTYLE
280
     0
  9
$LWDISPLAY
290
     1
  9
$INSUNITS
 70
     4
  9
$HYPERLINKBASE
  1

  9
$STYLESHEET
  1

  9
$XEDIT
290
     1
  9
$CEPSNTYPE
380
     0
  9
$PSTYLEMODE
290
     1
  9
$FINGERPRINTGUID
  2
{2AC53DDD-D679-4E14-802E-2D34567641E5}
  9
$VERSIONGUID
  2
{FAEB1C32-E019-11D5-929B-00C0DF256EC4}
  9
$EXTNAMES
290
     1
  9
$PSVPSCALE
 40
0.0
  9
$OLESTARTUP
290
     0
  0
ENDSEC
  0
SECTION
  2
CLASSES
  0
CLASS
  1
ACDBDICTIONARYWDFLT
  2
AcDbDictionaryWithDefault
  3
ObjectDBX Classes
 90
        0
280
     0
281
     0
  0
CLASS
  1
VISUALSTYLE
  2
AcDbVisualStyle
  3
ObjectDBX Classes
 90
     4095
280
     0
281
     0
  0
CLASS
  1
MATERIAL
  2
AcDbMaterial
  3
ObjectDBX Classes
 90
     1153
280
     0
281
     0
  0
CLASS
  1
ACDBPLACEHOLDER
  2
AcDbPlaceHolder
  3
ObjectDBX Classes
 90
        0
280
     0
281
     0
  0
CLASS
  1
LAYOUT
  2
AcDbLayout
  3
ObjectDBX Classes
 90
        0
280
     0
281
     0
  0
ENDSEC
  0
SECTION
  2
TABLES
  0
TABLE
  2
VPORT
  5
8
330
0
100
AcDbSymbolTable
 70
     1
  0
VPORT
  5
29
330
8
100
AcDbSymbolTableRecord
100
AcDbViewportTableRecord
  2
*Active
 70
     0
 10
0.0
 20
0.0
 11
1.0
 21
1.0
 12
0.0
 22
0.0
 13
0.0
 23
0.0
 14
10.0
 24
10.0
 15
10.0
 25
10.0
 16
0.0
 26
0.0
 36
1.0
 17
0.0
 27
0.0
 37
0.0
 40
44.88
 41
1.0
 42
50.0
 43
0.0
 44
0.0
 50
0.0
 51
0.0
 71
     0
 72
   100
 73
     1
 74
     3
 75
     0
 76
     0
 77
     0
 78
     0
281
     0
 65
     1
110
0.0
120
0.0
130
0.0
111
1.0
121
0.0
131
0.0
112
0.0
122
1.0
132
0.0
 79
     0
146
0.0
  0
ENDTAB
  0
TABLE
  2
LTYPE
  5
5
330
0
100
AcDbSymbolTable
 70
     6
  0
LTYPE
  5
14
330
5
100
AcDbSymbolTableRecord
100
AcDbLinetypeTableRecord
  2
ByBlock
 70
     0
  3

 72
    65
 73
     0
 40
0.0
  0
LTYPE
  5
15
330
5
100
AcDbSymbolTableRecord
100
AcDbLinetypeTableRecord
  2
ByLayer
 70
     0
  3

 72
    65
 73
     0
 40
0.0
  0
LTYPE
  5
16
330
5
100
AcDbSymbolTableRecord
100
AcDbLinetypeTableRecord
  2
Continuous
 70
     0
  3
Solid line
 72
    65
 73
     0
 40
0.0
  0
LTYPE
  5
3F
330
5
100
AcDbSymbolTableRecord
100
AcDbLinetypeTableRecord
  2
HIDDEN
 70
     0
  3
Hidden __ __ __ __ __ __ __ __ __ __ __ __ __ __
 72
    65
 73
     2
 40
1.905
 49
1.27
 74
     0
 49
-0.635
 74
     0
  0
LTYPE
  5
40
330
5
100
AcDbSymbolTableRecord
100
AcDbLinetypeTableRecord
  2
PHANTOM
 70
     0
  3
Phantom ______  __  __  ______  __  __  ______
 72
    65
 73
     6
 40
12.7
 49
6.35
 74
     0
 49
-1.27
 74
     0
 49
1.27
 74
     0
 49
-1.27
 74
     0
 49
1.27
 74
     0
 49
-1.27
 74
     0
  0
LTYPE
  5
41
330
5
100
AcDbSymbolTableRecord
100
AcDbLinetypeTableRecord
  2
CENTER
 70
     0
  3
Center ____ _ ____ _ ____ _ ____ _ ____ _ ____
 72
    65
 73
     4
 40
10.16
 49
6.35
 74
     0
 49
-1.27
 74
     0
 49
1.27
 74
     0
 49
-1.27
 74
     0
  0
LTYPE
  5
42
330
5
100
AcDbSymbolTableRecord
100
AcDbLinetypeTableRecord
  2
CENTERX2
 70
     0
  3
Center (2x) ________  __  ________  __  _____
 72
    65
 73
     4
 40
20.32
 49
12.7
 74
     0
 49
-2.54
 74
     0
 49
2.54
 74
     0
 49
-2.54
 74
     0
  0
LTYPE
  5
43
330
5
100
AcDbSymbolTableRecord
100
AcDbLinetypeTableRecord
  2
DOT2
 70
     0
  3
Dot (.5x) ........................................
 72
    65
 73
     2
 40
0.635
 49
0.0
 74
     0
 49
-0.635
 74
     0
  0
ENDTAB
  0
TABLE
  2
LAYER
  5
2
330
0
100
AcDbSymbolTable
 70
     1
  0
LAYER
  5
10
330
2
100
AcDbSymbolTableRecord
100
AcDbLayerTableRecord
  2
0
 70
     0
 62
     7
  6
Continuous
370
    -3
390
F
  0
ENDTAB
  0
TABLE
  2
STYLE
  5
3
330
0
100
AcDbSymbolTable
 70
     1
  0
STYLE
  5
11
330
3
100
AcDbSymbolTableRecord
100
AcDbTextStyleTableRecord
  2
Standard
 70
     0
 40
0.0
 41
1.0
 50
0.0
 71
     0
 42
3.5
  3
txt
  4

  0
ENDTAB
  0
TABLE
  2
VIEW
  5
6
330
0
100
AcDbSymbolTable
 70
     0
  0
ENDTAB
  0
TABLE
  2
UCS
  5
7
330
0
100
AcDbSymbolTable
 70
     0
  0
ENDTAB
  0
TABLE
  2
APPID
  5
9
330
0
100
AcDbSymbolTable
 70
     1
  0
APPID
  5
12
330
9
100
AcDbSymbolTableRecord
100
AcDbRegAppTableRecord
  2
ACAD
 70
     0
  0
ENDTAB
  0
TABLE
  2
DIMSTYLE
  5
A
330
0
100
AcDbSymbolTable
 70
     1
100
AcDbDimStyleTable
  0
DIMSTYLE
105
27
330
A
100
AcDbSymbolTableRecord
100
AcDbDimStyleTableRecord
  2
ISO-25
 70
     0
 41
2.5
 42
0.625
 43
3.75
 44
1.25
 73
     0
 74
     0
 77
     1
 78
     8
140
2.5
141
2.5
143
0.0393700787
147
0.625
171
     3
172
     1
178
     0
271
     2
272
     2
274
     3
278
    44
283
     0
284
     8
340
11
  0
ENDTAB
  0
TABLE
  2
BLOCK_RECORD
  5
1
330
0
100
AcDbSymbolTable
 70
     5
  0
BLOCK_RECORD
  5
1F
330
1
100
AcDbSymbolTableRecord
100
AcDbBlockTableRecord
  2
*Model_Space
340
22
  0
BLOCK_RECORD
  5
1B
330
1
100
AcDbSymbolTableRecord
100
AcDbBlockTableRecord
  2
*Paper_Space
340
1E
  0
BLOCK_RECORD
  5
23
330
1
100
AcDbSymbolTableRecord
100
AcDbBlockTableRecord
  2
*Paper_Space0
340
26
  0
BLOCK_RECORD
  5
CB
330
1
100
AcDbSymbolTableRecord
100
AcDbBlockTableRecord
  2
*Paper_Space1
340
CC
  0
BLOCK_RECORD
  5
E2
330
1
100
AcDbSymbolTableRecord
100
AcDbBlockTableRecord
  2
*Paper_Space2
340
E3
  0
BLOCK_RECORD
  5
100
330
1
100
AcDbSymbolTableRecord
100
AcDbBlockTableRecord
  2
*Paper_Space3
340
101
  0
BLOCK_RECORD
  5
11E
330
1
100
AcDbSymbolTableRecord
100
AcDbBlockTableRecord
  2
*Paper_Space4
340
11F
  0
ENDTAB
  0
ENDSEC
  0
SECTION
  2
BLOCKS
  0
BLOCK
  5
20
330
1F
100
AcDbEntity
  8
0
100
AcDbBlockBegin
  2
*Model_Space
 70
     0
 10
0.0
 20
0.0
 30
0.0
  3
*Model_Space
  1

  0
ENDBLK
  5
21
330
1F
100
AcDbEntity
  8
0
100
AcDbBlockEnd
  0
BLOCK
  5
1C
330
1B
100
AcDbEntity
 67
     1
  8
0
100
AcDbBlockBegin
  2
*Paper_Space
 70
     0
 10
0.0
 20
0.0
 30
0.0
  3
*Paper_Space
  1

  0
ENDBLK
  5
1D
330
1B
100
AcDbEntity
 67
     1
  8
0
100
AcDbBlockEnd
  0
BLOCK
  5
24
330
23
100
AcDbEntity
  8
0
100
AcDbBlockBegin
  2
*Paper_Space0
 70
     0
 10
0.0
 20
0.0
 30
0.0
  3
*Paper_Space0
  1

  0
LINE
  5
C2
330
23
100
AcDbEntity
  8
0
  6
Continuous
 62
     7
370
    15
100
AcDbLine
 10
15.0
 20
-18.0
 30
0.0
 11
0.0
 21
-18.0
 31
0.0
  0
LINE
  5
C3
330
23
100
AcDbEntity
  8
0
  6
Continuous
 62
     7
370
    15
100
AcDbLine
 10
13.5
 20
-22.0
 30
0.0
 11
13.5
 21
22.0
 31
0.0
  0
LINE
  5
C4
330
23
100
AcDbEntity
  8
0
  6
Continuous
 62
     7
370
    15
100
AcDbLine
 10
13.5
 20
-22.0
 30
0.0
 11
0.0
 21
-22.0
 31
0.0
  0
LINE
  5
C5
330
23
100
AcDbEntity
  8
0
  6
Continuous
 62
     7
370
    15
100
AcDbLine
 10
15.0
 20
20.5
 30
0.0
 11
15.0
 21
-20.5
 31
0.0
  0
LINE
  5
C6
330
23
100
AcDbEntity
  8
0
  6
Continuous
 62
     7
370
    15
100
AcDbLine
 10
15.0
 20
18.0
 30
0.0
 11
0.0
 21
18.0
 31
0.0
  0
LINE
  5
C7
330
23
100
AcDbEntity
  8
0
  6
Continuous
 62
     7
370
    15
100
AcDbLine
 10
0.0
 20
22.0
 30
0.0
 11
0.0
 21
-22.0
 31
0.0
  0
LINE
  5
C8
330
23
100
AcDbEntity
  8
0
  6
Continuous
 62
     7
370
    15
100
AcDbLine
 10
13.5
 20
22.0
 30
0.0
 11
0.0
 21
22.0
 31
0.0
  0
ARC
  5
C9
330
23
100
AcDbEntity
  8
0
  6
Continuous
 62
     7
370
    15
100
AcDbCircle
 10
13.5
 20
20.5
 30
0.0
 40
1.500000000000009
100
AcDbArc
 50
0.0
 51
90.0
  0
ARC
  5
CA
330
23
100
AcDbEntity
  8
0
  6
Continuous
 62
     7
370
    15
100
AcDbCircle
 10
13.5
 20
-20.5
 30
0.0
 40
1.500000000000004
100
AcDbArc
 50
270.0
 51
0.0
  0
VIEWPORT
  5
1AC
330
23
100
AcDbEntity
  8
0
100
AcDbViewport
 10
0.0
 20
0.0
 30
0.0
 40
243.84
 41
204.216
 68
     1
 69
     1
 12
0.0
 22
0.0
 13
0.0
 23
0.0
 14
10.0
 24
10.0
 15
10.0
 25
10.0
 16
0.0
 26
0.0
 36
1.0
 17
0.0
 27
0.0
 37
0.0
 42
50.0
 43
0.0
 44
0.0
 45
44.88
 50
0.0
 51
0.0
 72
   100
 90
   557152
  1

281
     0
 71
     1
 74
     0
110
0.0
120
0.0
130
0.0
111
1.0
121
0.0
131
0.0
112
0.0
122
1.0
132
0.0
 79
     0
146
0.0
  0
ENDBLK
  5
25
330
23
100
AcDbEntity
  8
0
100
AcDbBlockEnd
  0
BLOCK
  5
CD
330
CB
100
AcDbEntity
  8
0
100
AcDbBlockBegin
  2
*Paper_Space1
 70
     0
 10
0.0
 20
0.0
 30
0.0
  3
*Paper_Space1
  1

  0
CIRCLE
  5
CF
330
CB
100
AcDbEntity
  8
0
  6
Continuous
 62
     7
370
    15
100
AcDbCircle
 10
0.0
 20
12.0
 30
0.0
 40
1.4
  0
CIRCLE
  5
D0
330
CB
100
AcDbEntity
  8
0
  6
Continuous
 62
     7
370
    15
100
AcDbCircle
 10
0.0
 20
-12.0
 30
0.0
 40
1.4
  0
CIRCLE
  5
D1
330
CB
100
AcDbEntity
  8
0
  6
Continuous
 62
     7
370
    15
100
AcDbCircle
 10
12.0
 20
0.0
 30
0.0
 40
4.000000000000004
  0
LINE
  5
DA
330
CB
100
AcDbEntity
  8
0
  6
Continuous
 62
     7
370
    15
100
AcDbLine
 10
22.0
 20
18.0
 30
0.0
 11
22.0
 21
-18.0
 31
0.0
  0
LINE
  5
DB
330
CB
100
AcDbEntity
  8
0
  6
Continuous
 62
     7
370
    15
100
AcDbLine
 10
-18.0
 20
22.0
 30
0.0
 11
18.0
 21
22.0
 31
0.0
  0
LINE
  5
DC
330
CB
100
AcDbEntity
  8
0
  6
Continuous
 62
     7
370
    15
100
AcDbLine
 10
-22.0
 20
-18.0
 30
0.0
 11
-22.0
 21
18.0
 31
0.0
  0
LINE
  5
DD
330
CB
100
AcDbEntity
  8
0
  6
Continuous
 62
     7
370
    15
100
AcDbLine
 10
18.0
 20
-22.0
 30
0.0
 11
-18.0
 21
-22.0
 31
0.0
  0
ARC
  5
DE
330
CB
100
AcDbEntity
  8
0
  6
Continuous
 62
     7
370
    15
100
AcDbCircle
 10
18.0
 20
18.0
 30
0.0
 40
4.000000000000018
100
AcDbArc
 50
0.0
 51
90.0
  0
ARC
  5
DF
330
CB
100
AcDbEntity
  8
0
  6
Continuous
 62
     7
370
    15
100
AcDbCircle
 10
-18.0
 20
18.0
 30
0.0
 40
4.000000000000018
100
AcDbArc
 50
90.0
 51
180.0
  0
ARC
  5
E0
330
CB
100
AcDbEntity
  8
0
  6
Continuous
 62
     7
370
    15
100
AcDbCircle
 10
-18.0
 20
-18.0
 30
0.0
 40
4.000000000000011
100
AcDbArc
 50
180.0
 51
270.0
  0
ARC
  5
E1
330
CB
100
AcDbEntity
  8
0
  6
Continuous
 62
     7
370
    15
100
AcDbCircle
 10
18.0
 20
-18.0
 30
0.0
 40
4.000000000000018
100
AcDbArc
 50
270.0
 51
0.0
  0
VIEWPORT
  5
1AD
330
CB
100
AcDbEntity
  8
0
100
AcDbViewport
 10
0.0
 20
0.0
 30
0.0
 40
243.84
 41
204.216
 68
     1
 69
     1
 12
0.0
 22
0.0
 13
0.0
 23
0.0
 14
10.0
 24
10.0
 15
10.0
 25
10.0
 16
0.0
 26
0.0
 36
1.0
 17
0.0
 27
0.0
 37
0.0
 42
50.0
 43
0.0
 44
0.0
 45
44.88
 50
0.0
 51
0.0
 72
   100
 90
   557152
  1

281
     0
 71
     1
 74
     0
110
0.0
120
0.0
130
0.0
111
1.0
121
0.0
131
0.0
112
0.0
122
1.0
132
0.0
 79
     0
146
0.0
  0
ENDBLK
  5
CE
330
CB
100
AcDbEntity
  8
0
100
AcDbBlockEnd
  0
BLOCK
  5
E4
330
E2
100
AcDbEntity
  8
0
100
AcDbBlockBegin
  2
*Paper_Space2
 70
     0
 10
0.0
 20
0.0
 30
0.0
  3
*Paper_Space2
  1

  0
LINE
  5
F7
330
E2
100
AcDbEntity
  8
0
  6
Continuous
 62
     7
370
    15
100
AcDbLine
 10
-13.5
 20
22.0
 30
0.0
 11
-13.5
 21
-22.0
 31
0.0
  0
LINE
  5
F8
330
E2
100
AcDbEntity
  8
0
  6
Continuous
 62
     7
370
    15
100
AcDbLine
 10
-15.0
 20
-20.5
 30
0.0
 11
-15.0
 21
20.5
 31
0.0
  0
LINE
  5
F9
330
E2
100
AcDbEntity
  8
0
  6
Continuous
 62
     7
370
    15
100
AcDbLine
 10
-15.0
 20
-18.0
 30
0.0
 11
0.0
 21
-18.0
 31
0.0
  0
LINE
  5
FA
330
E2
100
AcDbEntity
  8
0
  6
Continuous
 62
     7
370
    15
100
AcDbLine
 10
-15.0
 20
18.0
 30
0.0
 11
0.0
 21
18.0
 31
0.0
  0
LINE
  5
FB
330
E2
100
AcDbEntity
  8
0
  6
Continuous
 62
     7
370
    15
100
AcDbLine
 10
0.0
 20
-22.0
 30
0.0
 11
0.0
 21
22.0
 31
0.0
  0
LINE
  5
FC
330
E2
100
AcDbEntity
  8
0
  6
Continuous
 62
     7
370
    15
100
AcDbLine
 10
-13.5
 20
-22.0
 30
0.0
 11
0.0
 21
-22.0
 31
0.0
  0
LINE
  5
FD
330
E2
100
AcDbEntity
  8
0
  6
Continuous
 62
     7
370
    15
100
AcDbLine
 10
-13.5
 20
22.0
 30
0.0
 11
0.0
 21
22.0
 31
0.0
  0
ARC
  5
FE
330
E2
100
AcDbEntity
  8
0
  6
Continuous
 62
     7
370
    15
100
AcDbCircle
 10
-13.5
 20
-20.5
 30
0.0
 40
1.500000000000009
100
AcDbArc
 50
180.0
 51
270.0
  0
ARC
  5
FF
330
E2
100
AcDbEntity
  8
0
  6
Continuous
 62
     7
370
    15
100
AcDbCircle
 10
-13.5
 20
20.5
 30
0.0
 40
1.500000000000012
100
AcDbArc
 50
90.0
 51
180.0
  0
VIEWPORT
  5
1AE
330
E2
100
AcDbEntity
  8
0
100
AcDbViewport
 10
0.0
 20
0.0
 30
0.0
 40
243.84
 41
204.216
 68
     1
 69
     1
 12
0.0
 22
0.0
 13
0.0
 23
0.0
 14
10.0
 24
10.0
 15
10.0
 25
10.0
 16
0.0
 26
0.0
 36
1.0
 17
0.0
 27
0.0
 37
0.0
 42
50.0
 43
0.0
 44
0.0
 45
44.88
 50
0.0
 51
0.0
 72
   100
 90
   557152
  1

281
     0
 71
     1
 74
     0
110
0.0
120
0.0
130
0.0
111
1.0
121
0.0
131
0.0
112
0.0
122
1.0
132
0.0
 79
     0
146
0.0
  0
ENDBLK
  5
E5
330
E2
100
AcDbEntity
  8
0
100
AcDbBlockEnd
  0
BLOCK
  5
102
330
100
100
AcDbEntity
  8
0
100
AcDbBlockBegin
  2
*Paper_Space3
 70
     0
 10
0.0
 20
0.0
 30
0.0
  3
*Paper_Space3
  1

  0
LINE
  5
115
330
100
100
AcDbEntity
  8
0
  6
Continuous
 62
     7
370
    15
100
AcDbLine
 10
-22.0
 20
0.0
 30
0.0
 11
22.0
 21
0.0
 31
0.0
  0
LINE
  5
116
330
100
100
AcDbEntity
  8
0
  6
Continuous
 62
     7
370
    15
100
AcDbLine
 10
-22.0
 20
13.5
 30
0.0
 11
-22.0
 21
0.0
 31
0.0
  0
LINE
  5
117
330
100
100
AcDbEntity
  8
0
  6
Continuous
 62
     7
370
    15
100
AcDbLine
 10
22.0
 20
13.5
 30
0.0
 11
-22.0
 21
13.5
 31
0.0
  0
LINE
  5
118
330
100
100
AcDbEntity
  8
0
  6
Continuous
 62
     7
370
    15
100
AcDbLine
 10
-18.0
 20
15.0
 30
0.0
 11
-18.0
 21
0.0
 31
0.0
  0
LINE
  5
119
330
100
100
AcDbEntity
  8
0
  6
Continuous
 62
     7
370
    15
100
AcDbLine
 10
18.0
 20
15.0
 30
0.0
 11
18.0
 21
0.0
 31
0.0
  0
LINE
  5
11A
330
100
100
AcDbEntity
  8
0
  6
Continuous
 62
     7
370
    15
100
AcDbLine
 10
-20.5
 20
15.0
 30
0.0
 11
20.5
 21
15.0
 31
0.0
  0
LINE
  5
11B
330
100
100
AcDbEntity
  8
0
  6
Continuous
 62
     7
370
    15
100
AcDbLine
 10
22.0
 20
13.5
 30
0.0
 11
22.0
 21
0.0
 31
0.0
  0
ARC
  5
11C
330
100
100
AcDbEntity
  8
0
  6
Continuous
 62
     7
370
    15
100
AcDbCircle
 10
-20.5
 20
13.5
 30
0.0
 40
1.500000000000007
100
AcDbArc
 50
90.0
 51
180.0
  0
ARC
  5
11D
330
100
100
AcDbEntity
  8
0
  6
Continuous
 62
     7
370
    15
100
AcDbCircle
 10
20.5
 20
13.5
 30
0.0
 40
1.500000000000007
100
AcDbArc
 50
0.0
 51
90.0
  0
VIEWPORT
  5
1AF
330
100
100
AcDbEntity
  8
0
100
AcDbViewport
 10
0.0
 20
0.0
 30
0.0
 40
243.84
 41
204.216
 68
     1
 69
     1
 12
0.0
 22
0.0
 13
0.0
 23
0.0
 14
10.0
 24
10.0
 15
10.0
 25
10.0
 16
0.0
 26
0.0
 36
1.0
 17
0.0
 27
0.0
 37
0.0
 42
50.0
 43
0.0
 44
0.0
 45
44.88
 50
0.0
 51
0.0
 72
   100
 90
   557152
  1

281
     0
 71
     1
 74
     0
110
0.0
120
0.0
130
0.0
111
1.0
121
0.0
131
0.0
112
0.0
122
1.0
132
0.0
 79
     0
146
0.0
  0
ENDBLK
  5
103
330
100
100
AcDbEntity
  8
0
100
AcDbBlockEnd
  0
BLOCK
  5
120
330
11E
100
AcDbEntity
  8
0
100
AcDbBlockBegin
  2
*Paper_Space4
 70
     0
 10
0.0
 20
0.0
 30
0.0
  3
*Paper_Space4
  1

  0
SPLINE
  5
122
330
11E
100
AcDbEntity
  8
0
  6
Continuous
 62
     7
370
    15
100
AcDbSpline
210
0.0
220
0.0
230
1.0
 70
     8
 71
     3
 72
    17
 73
    13
 74
     0
 42
0.00000001
 43
0.00000001
 12
1.0
 22
0.0
 32
0.0
 13
1.0
 23
0.0
 33
0.0
 40
0.0
 40
0.0
 40
0.0
 40
0.0
 40
0.0749958483667472
 40
0.2038284248956883
 40
0.3174888516139167
 40
0.4277253232129621
 40
0.5347484823916737
 40
0.6390787858190569
 40
0.752576880070167
 40
0.8629770502490344
 40
0.970698720023257
 40
1.0
 40
1.0
 40
1.0
 40
1.0
 10
2.432041465862377
 20
-30.89658769843656
 30
0.0
 10
2.49658748249205
 20
-30.93237596600385
 30
0.0
 10
2.672014698657128
 20
-31.02964356636902
 30
0.0
 10
2.955468193300211
 20
-31.1520577048711
 30
0.0
 10
3.279376748289382
 20
-31.25437652576311
 30
0.0
 10
3.59034504445638
 20
-31.31658996891777
 30
0.0
 10
3.896851142322142
 20
-31.34315198331229
 30
0.0
 10
4.207496268310322
 20
-31.33399483277276
 30
0.0
 10
4.518935203586842
 20
-31.28640835947012
 30
0.0
 10
4.823195363574921
 20
-31.19398508465776
 30
0.0
 10
5.044090843253876
 20
-31.10284309363468
 30
0.0
 10
5.155190716820138
 20
-31.03246638078914
 30
0.0
 10
5.178948550866639
 20
-31.0174168743329
 30
0.0
  0
SPLINE
  5
123
330
11E
100
AcDbEntity
  8
0
  6
Continuous
 62
     7
370
    15
100
AcDbSpline
210
0.0
220
0.0
230
1.0
 70
     8
 71
     3
 72
    17
 73
    13
 74
     0
 42
0.00000001
 43
0.00000001
 12
1.0
 22
0.0
 32
0.0
 13
1.0
 23
0.0
 33
0.0
 40
0.0
 40
0.0
 40
0.0
 40
0.0
 40
0.0764677278647502
 40
0.1810803862680489
 40
0.2852054679939084
 40
0.3897002260499977
 40
0.4954372384220806
 40
0.6032830337847468
 40
0.7140296107616727
 40
0.8282579214525886
 40
0.9461415082824046
 40
1.0
 40
1.0
 40
1.0
 40
1.0
 10
-24.27083164290345
 20
19.99590736472635
 30
0.0
 10
-24.33429713575178
 20
19.95881847859699
 30
0.0
 10
-24.48458741219353
 20
19.87098966487264
 30
0.0
 10
-24.695754879046
 20
19.69483811434779
 30
0.0
 10
-24.90408359586846
 20
19.47810434209266
 30
0.0
 10
-25.08375245377391
 20
19.23592965998852
 30
0.0
 10
-25.23519113108084
 20
18.97170530187923
 30
0.0
 10
-25.35768002967883
 20
18.68627878712806
 30
0.0
 10
-25.45075864519591
 20
18.38057893437764
 30
0.0
 10
-25.51296562161673
 20
18.05530679258363
 30
0.0
 10
-25.53882449740701
 20
17.77750101202738
 30
0.0
 10
-25.54096065814689
 20
17.60824261269512
 30
0.0
 10
-25.5416305603426
 20
17.555163005323
 30
0.0
  0
SPLINE
  5
128
330
11E
100
AcDbEntity
  8
0
  6
Continuous
 62
     7
370
    15
100
AcDbSpline
210
0.0
220
0.0
230
1.0
 70
     8
 71
     3
 72
    21
 73
    17
 74
     0
 42
0.00000001
 43
0.00000001
 12
1.0
 22
0.0
 32
0.0
 13
1.0
 23
0.0
 33
0.0
 40
0.0
 40
0.0
 40
0.0
 40
0.0
 40
0.0439732620628629
 40
0.1180663120291452
 40
0.1922928351885261
 40
0.2664817121346293
 40
0.3404062037937279
 40
0.4140492614585066
 40
0.4875219442691577
 40
0.5610042609942552
 40
0.6346858686987233
 40
0.7087456004805633
 40
0.7834091041353285
 40
0.8588705024390506
 40
0.9352353799634026
 40
1.0
 40
1.0
 40
1.0
 40
1.0
 10
-25.5416305603426
 20
-11.840306222564
 30
0.0
 10
-25.54039318294479
 20
-11.91341440425664
 30
0.0
 10
-25.53707087800096
 20
-12.10970671887428
 30
0.0
 10
-25.50319114410405
 20
-12.43347907952523
 30
0.0
 10
-25.43332116942761
 20
-12.81001201684686
 30
0.0
 10
-25.33189287924668
 20
-13.18604913685101
 30
0.0
 10
-25.20140576671692
 20
-13.55787422241064
 30
0.0
 10
-25.04362368636278
 20
-13.92216684322248
 30
0.0
 10
-24.86034984162845
 20
-14.27608626719623
 30
0.0
 10
-24.65312048537103
 20
-14.61702274170975
 30
0.0
 10
-24.42332581366503
 20
-14.94240164733802
 30
0.0
 10
-24.1721281487719
 20
-15.24957428899944
 30
0.0
 10
-23.90056507026335
 20
-15.53607138838287
 30
0.0
 10
-23.60911690739476
 20
-15.79820303312686
 30
0.0
 10
-23.31650790210984
 20
-16.02265385126367
 30
0.0
 10
-23.11587398075975
 20
-16.14506633991752
 30
0.0
 10
-23.02380265685329
 20
-16.20124168562778
 30
0.0
  0
LWPOLYLINE
  5
130
330
11E
100
AcDbEntity
  8
0
  6
Continuous
 62
     7
370
    15
100
AcDbPolyline
 90
       11
 70
   128
 43
0.0
 10
2.1213203436
 20
-29.8015500828
 10
2.3425520856
 20
-29.9091585043
 10
2.558336368
 20
-29.9739053598
 10
2.7633598655
 20
-29.994196367
 10
2.9525742191
 20
-29.9695318938
 10
3.1213203436
 20
-29.9005192615
 10
3.2654431492
 20
-29.7888577901
 10
3.3813938542
 20
-29.6372969555
 10
3.4663173675
 20
-29.4495686887
 10
3.5181225902
 20
-29.2302954824
 10
3.5355339059
 20
-28.9848765708
  0
LWPOLYLINE
  5
134
330
11E
100
AcDbEntity
  8
0
  6
Continuous
 62
     7
370
    15
100
AcDbPolyline
 90
       11
 70
   128
 43
0.0
 10
-23.3345237792
 20
17.5554284054
 10
-23.5557555212
 20
17.6630368269
 10
-23.7715398036
 20
17.7277836825
 10
-23.9765633011
 20
17.7480746897
 10
-24.1657776547
 20
17.7234102165
 10
-24.3345237792
 20
17.6543975842
 10
-24.4786465848
 20
17.5427361127
 10
-24.5945972898
 20
17.3911752782
 10
-24.6795208031
 20
17.2034470113
 10
-24.7313260258
 20
16.9841738051
 10
-24.7487373415
 20
16.7387548935
  0
LWPOLYLINE
  5
155
330
11E
100
AcDbEntity
  8
0
  6
Continuous
 62
     7
370
    15
100
AcDbPolyline
 90
       61
 70
   128
 43
0.0
 10
-6.3639610307
 20
2.8574283914
 10
-6.3794554504
 20
3.2077801545
 10
-6.4257689495
 20
3.5721828667
 10
-6.5023941076
 20
3.9466440555
 10
-6.6084914033
 20
4.3270610458
 10
-6.7428984126
 20
4.7092659094
 10
-6.9041425442
 20
5.0890711299
 10
-7.0904571734
 20
5.4623154818
 10
-7.2998009984
 20
5.8249096218
 10
-7.5298804043
 20
6.1728808927
 10
-7.7781745931
 20
6.5024168485
 10
-8.0419632015
 20
6.8099070242
 10
-8.3183561065
 20
7.0919824931
 10
-8.6043250896
 20
7.3455527774
 10
-8.8967370146
 20
7.5678397079
 10
-9.1923881554
 20
7.7564078626
 10
-9.4880392962
 20
7.9091912492
 10
-9.7804512213
 20
8.0245159411
 10
-10.0664202043
 20
8.1011184167
 10
-10.3428131093
 20
8.1381594033
 10
-10.6066017178
 20
8.1352330721
 10
-10.8548959065
 20
8.0923714847
 10
-11.0849753124
 20
8.0100442414
 10
-11.2943191374
 20
7.8891533369
 10
-11.4806337667
 20
7.7310232771
 10
-11.6418778982
 20
7.5373865682
 10
-11.7762849075
 20
7.3103647343
 10
-11.8823822033
 20
7.0524450743
 10
-11.9590073613
 20
6.7664534099
 10
-12.0053208604
 20
6.4555231256
 10
-12.0208152802
 20
6.1230608387
 10
-12.0053208604
 20
5.7727090755
 10
-11.9590073613
 20
5.4083063633
 10
-11.8823822033
 20
5.0338451745
 10
-11.7762849075
 20
4.6534281843
 10
-11.6418778982
 20
4.2712233206
 10
-11.4806337667
 20
3.8914181002
 10
-11.2943191374
 20
3.5181737483
 10
-11.0849753124
 20
3.1555796082
 10
-10.8548959065
 20
2.8076083373
 10
-10.6066017178
 20
2.4780723816
 10
-10.3428131093
 20
2.1705822059
 10
-10.0664202043
 20
1.888506737
 10
-9.7804512213
 20
1.6349364527
 10
-9.4880392962
 20
1.4126495222
 10
-9.1923881554
 20
1.2240813675
 10
-8.8967370146
 20
1.0712979808
 10
-8.6043250896
 20
0.955973289
 10
-8.3183561065
 20
0.8793708134
 10
-8.0419632015
 20
0.8423298267
 10
-7.7781745931
 20
0.8452561579
 10
-7.5298804043
 20
0.8881177454
 10
-7.2998009984
 20
0.9704449886
 10
-7.0904571734
 20
1.0913358932
 10
-6.9041425442
 20
1.2494659529
 10
-6.7428984126
 20
1.4431026619
 10
-6.6084914033
 20
1.6701244957
 10
-6.5023941076
 20
1.9280441557
 10
-6.4257689495
 20
2.2140358201
 10
-6.3794554504
 20
2.5249661045
 10
-6.3639610307
 20
2.8574283914
  0
LWPOLYLINE
  5
156
330
11E
100
AcDbEntity
  8
0
  6
Continuous
 62
     7
370
    15
100
AcDbPolyline
 90
       36
 70
   128
 43
0.0
 10
-1.6970562748
 20
-9.6352081203
 10
-1.6811473792
 20
-9.8485107188
 10
-1.6339320173
 20
-10.0733256163
 10
-1.5569277297
 20
-10.3024270768
 10
-1.4526094976
 20
-10.528451591
 10
-1.3243301948
 20
-10.7441345451
 10
-1.1762128237
 20
-10.9425437113
 10
-1.0130179983
 20
-11.1173020559
 10
-0.8399909347
 20
-11.2627927018
 10
-0.6626928651
 20
-11.37433946
 10
-0.4868222953
 20
-11.4483571259
 10
-0.3180318501
 20
-11.4824667109
 10
-0.1617465933
 20
-11.4755719047
 10
-0.0229896617
 20
-11.4278943121
 10
0.0937791828
 20
-11.3409663303
 10
0.1848068934
 20
-11.217581896
 10
0.2471677647
 20
-11.0617066864
 10
0.2788574669
 20
-10.8783506592
 10
0.2788574669
 20
-10.6734070278
 10
0.2471677647
 20
-10.4534628492
 10
0.1848068934
 20
-10.2255873103
 10
0.0937791828
 20
-9.9971045183
 10
-0.0229896617
 20
-9.7753580983
 10
-0.1617465933
 20
-9.5674751626
 10
-0.3180318501
 20
-9.3801372398
 10
-0.4868222953
 20
-9.2193655249
 10
-0.6626928651
 20
-9.0903273531
 10
-0.8399909347
 20
-8.9971701174
 10
-1.0130179983
 20
-8.942887968
 10
-1.1762128237
 20
-8.9292255778
 10
-1.3243301948
 20
-8.9566220674
 10
-1.4526094976
 20
-9.024196891
 10
-1.5569277297
 20
-9.1297781381
 10
-1.6339320173
 20
-9.2699723407
 10
-1.6811473792
 20
-9.4402735416
 10
-1.6970562748
 20
-9.6352081203
  0
LWPOLYLINE
  5
160
330
11E
100
AcDbEntity
  8
0
  6
Continuous
 62
     7
370
    15
100
AcDbPolyline
 90
       22
 70
   128
 43
0.0
 10
-6.8704876123
 20
1.2846999255
 10
-7.0710678119
 20
1.2534602138
 10
-7.3348564203
 20
1.2505338827
 10
-7.6112493253
 20
1.2875748693
 10
-7.8972183084
 20
1.3641773449
 10
-8.1896302334
 20
1.4795020368
 10
-8.4852813742
 20
1.6322854234
 10
-8.7809325151
 20
1.8208535781
 10
-9.0733444401
 20
2.0431405086
 10
-9.3593134231
 20
2.2967107929
 10
-9.6357063281
 20
2.5787862618
 10
-9.8994949366
 20
2.8862764375
 10
-10.1477891253
 20
3.2158123932
 10
-10.3778685313
 20
3.5637836642
 10
-10.5872123562
 20
3.9263778042
 10
-10.7735269855
 20
4.2996221561
 10
-10.934771117
 20
4.6794273766
 10
-11.0691781263
 20
5.0616322402
 10
-11.1752754221
 20
5.4420492305
 10
-11.2519005802
 20
5.8165104193
 10
-11.2982140793
 20
6.1809131314
 10
-11.313708499
 20
6.5312648946
  0
LWPOLYLINE
  5
161
330
11E
100
AcDbEntity
  8
0
  6
Continuous
 62
     7
370
    15
100
AcDbPolyline
 90
        3
 70
   128
 43
0.0
 10
-0.9899494937
 20
-9.2270040644
 10
-0.974040598
 20
-9.0320694857
 10
-0.9576734007
 20
-8.9561118309
  0
LINE
  5
16B
330
11E
100
AcDbEntity
  8
0
  6
Continuous
 62
     7
370
    15
100
AcDbLine
 10
5.1818179806
 20
-31.0203578247
 30
0.0
 11
14.7277595266
 21
-25.5096030699
 31
0.0
  0
LINE
  5
16C
330
11E
100
AcDbEntity
  8
0
  6
Continuous
 62
     7
370
    15
100
AcDbLine
 10
-14.7277595266
 20
25.5096030699
 30
0.0
 11
-24.2737010726
 21
19.9988483151
 31
0.0
  0
LINE
  5
16D
330
11E
100
AcDbEntity
  8
0
  6
Continuous
 62
     7
370
    15
100
AcDbLine
 10
-23.0238026569
 20
-16.2012416856
 30
0.0
 11
2.4320414659
 21
-30.8965876984
 31
0.0
  0
LINE
  5
16E
330
11E
100
AcDbEntity
  8
0
  6
Continuous
 62
     7
370
    15
100
AcDbLine
 10
-25.5416305603
 20
17.5551630053
 30
0.0
 11
-25.5416305603
 21
-11.8403062226
 31
0.0
  0
LINE
  5
16F
330
11E
100
AcDbEntity
  8
0
  6
Continuous
 62
     7
370
    15
100
AcDbLine
 10
6.0104076401
 20
0.2064906291
 30
0.0
 11
15.5563491861
 21
5.7172453839
 31
0.0
  0
LINE
  5
170
330
11E
100
AcDbEntity
  8
0
  6
Continuous
 62
     7
370
    15
100
AcDbLine
 10
3.1819805153
 20
5.1054701003
 30
0.0
 11
12.7279220614
 21
10.6162248551
 31
0.0
  0
LINE
  5
171
330
11E
100
AcDbEntity
  8
0
  6
Continuous
 62
     7
370
    15
100
AcDbLine
 10
3.5355339059
 20
-28.9848765708
 30
0.0
 11
3.5355339059
 21
0.410592657
 31
0.0
  0
LINE
  5
172
330
11E
100
AcDbEntity
  8
0
  6
Continuous
 62
     7
370
    15
100
AcDbLine
 10
2.1213203436
 20
2.8600823926
 30
0.0
 11
-23.3345237792
 21
17.5554284054
 31
0.0
  0
LINE
  5
173
330
11E
100
AcDbEntity
  8
0
  6
Continuous
 62
     7
370
    15
100
AcDbLine
 10
-24.7487373415
 20
16.7387548935
 30
0.0
 11
-24.7487373415
 21
-12.6567143344
 31
0.0
  0
LINE
  5
174
330
11E
100
AcDbEntity
  8
0
  6
Continuous
 62
     7
370
    15
100
AcDbLine
 10
-23.3345237792
 20
-15.10620407
 30
0.0
 11
2.1213203436
 21
-29.8015500828
 31
0.0
  0
LINE
  5
175
330
11E
100
AcDbEntity
  8
0
  6
Continuous
 62
     7
370
    15
100
AcDbLine
 10
2.1213203436
 20
3.2683527986
 30
0.0
 11
-23.3345237792
 21
17.9636988114
 31
0.0
  0
LINE
  5
176
330
11E
100
AcDbEntity
  8
0
  6
Continuous
 62
     7
370
    15
100
AcDbLine
 10
3.8890872965
 20
-29.1889785988
 30
0.0
 11
3.8890872965
 21
0.2064906291
 31
0.0
  0
LINE
  5
177
330
11E
100
AcDbEntity
  8
0
  6
Continuous
 62
     7
370
    15
100
AcDbLine
 10
-23.3345237792
 20
-15.5144744759
 30
0.0
 11
2.1213203436
 21
-30.2098204887
 31
0.0
  0
LINE
  5
178
330
11E
100
AcDbEntity
  8
0
  6
Continuous
 62
     7
370
    15
100
AcDbLine
 10
-25.1022907321
 20
16.9428569215
 30
0.0
 11
-25.1022907321
 21
-12.4526123064
 31
0.0
  0
LINE
  5
179
330
11E
100
AcDbEntity
  8
0
  6
Continuous
 62
     7
370
    15
100
AcDbLine
 10
6.0104076401
 20
0.2064906291
 30
0.0
 11
6.0104076401
 21
-29.1889785988
 31
0.0
  0
LINE
  5
17A
330
11E
100
AcDbEntity
  8
0
  6
Continuous
 62
     7
370
    15
100
AcDbLine
 10
-22.2738636074
 20
19.8008161131
 30
0.0
 11
3.1819805153
 21
5.1054701003
 31
0.0
  0
LINE
  5
17B
330
11E
100
AcDbEntity
  8
0
  6
Continuous
 62
     7
370
    15
100
AcDbLine
 10
-22.627416998
 20
-13.8814592022
 30
0.0
 11
2.8284271247
 21
-28.576805215
 31
0.0
  0
LINE
  5
17C
330
11E
100
AcDbEntity
  8
0
  6
Continuous
 62
     7
370
    15
100
AcDbLine
 10
2.1393485612
 20
2.8495422241
 30
0.0
 11
-22.627416998
 21
17.1470916495
 31
0.0
  0
LINE
  5
17D
330
11E
100
AcDbEntity
  8
0
  6
Continuous
 62
     7
370
    15
100
AcDbLine
 10
-23.3345237792
 20
16.7387548935
 30
0.0
 11
-23.3345237792
 21
-12.6567143344
 31
0.0
  0
LINE
  5
17E
330
11E
100
AcDbEntity
  8
0
  6
Continuous
 62
     7
370
    15
100
AcDbLine
 10
-24.0416305603
 20
17.1469589494
 30
0.0
 11
-24.0416305603
 21
-12.2485102785
 31
0.0
  0
LINE
  5
17F
330
11E
100
AcDbEntity
  8
0
  6
Continuous
 62
     7
370
    15
100
AcDbLine
 10
-22.627416998
 20
-14.6980000141
 30
0.0
 11
2.8284271247
 21
-29.3933460269
 31
0.0
  0
LINE
  5
180
330
11E
100
AcDbEntity
  8
0
  6
Continuous
 62
     7
370
    15
100
AcDbLine
 10
15.5563491861
 20
-23.678223844
 30
0.0
 11
15.5563491861
 21
5.7172453839
 31
0.0
  0
LINE
  5
181
330
11E
100
AcDbEntity
  8
0
  6
Continuous
 62
     7
370
    15
100
AcDbLine
 10
6.0104076401
 20
-29.1889785988
 30
0.0
 11
15.5563491861
 21
-23.678223844
 31
0.0
  0
LINE
  5
182
330
11E
100
AcDbEntity
  8
0
  6
Continuous
 62
     7
370
    15
100
AcDbLine
 10
12.7279220614
 20
10.6162248551
 30
0.0
 11
-12.7279220614
 21
25.3115708679
 31
0.0
  0
LINE
  5
183
330
11E
100
AcDbEntity
  8
0
  6
Continuous
 62
     7
370
    15
100
AcDbLine
 10
-22.2738636074
 20
19.8008161131
 30
0.0
 11
-12.7279220614
 21
25.3115708679
 31
0.0
  0
LINE
  5
184
330
11E
100
AcDbEntity
  8
0
  6
Continuous
 62
     7
370
    15
100
AcDbLine
 10
-14.1421356237
 20
12.2486429785
 30
0.0
 11
-14.1421356237
 21
-7.3500616075
 31
0.0
  0
LINE
  5
185
330
11E
100
AcDbEntity
  8
0
  6
Continuous
 62
     7
370
    15
100
AcDbLine
 10
-13.4350288425
 20
-8.5748064753
 30
0.0
 11
3.5355339059
 21
-18.3717038172
 31
0.0
  0
LINE
  5
186
330
11E
100
AcDbEntity
  8
0
  6
Continuous
 62
     7
370
    15
100
AcDbLine
 10
2.8284271247
 20
-29.3933460269
 30
0.0
 11
2.1213203436
 21
-29.8015500828
 31
0.0
  0
LINE
  5
187
330
11E
100
AcDbEntity
  8
0
  6
Continuous
 62
     7
370
    15
100
AcDbLine
 10
-24.0416305603
 20
17.1469589494
 30
0.0
 11
-24.7487373415
 21
16.7387548935
 31
0.0
  0
LINE
  5
188
330
11E
100
AcDbEntity
  8
0
  6
Continuous
 62
     7
370
    15
100
AcDbLine
 10
-22.627416998
 20
-14.6980000141
 30
0.0
 11
-23.3345237792
 21
-15.10620407
 31
0.0
  0
LINE
  5
189
330
11E
100
AcDbEntity
  8
0
  6
Continuous
 62
     7
370
    15
100
AcDbLine
 10
-13.4350288425
 20
-8.5748064753
 30
0.0
 11
-22.627416998
 21
-13.8814592022
 31
0.0
  0
LINE
  5
18A
330
11E
100
AcDbEntity
  8
0
  6
Continuous
 62
     7
370
    15
100
AcDbLine
 10
-24.0416305603
 20
-12.2485102785
 30
0.0
 11
-24.7487373415
 21
-12.6567143344
 31
0.0
  0
LINE
  5
18B
330
11E
100
AcDbEntity
  8
0
  6
Continuous
 62
     7
370
    15
100
AcDbLine
 10
-14.1421356237
 20
-7.3500616075
 30
0.0
 11
-23.3345237792
 21
-12.6567143344
 31
0.0
  0
LINE
  5
18C
330
11E
100
AcDbEntity
  8
0
  6
Continuous
 62
     8
370
    15
100
AcDbLine
 10
3.5355338966
 20
-28.1686011645
 30
0.0
 11
2.8284271247
 21
-28.576805215
 31
0.0
  0
LINE
  5
18D
330
11E
100
AcDbEntity
  8
0
  6
Continuous
 62
     8
370
    15
100
AcDbLine
 10
-22.6273020639
 20
17.1470252994
 30
0.0
 11
-23.3345237792
 21
16.7387548935
 31
0.0
  0
ARC
  5
18E
330
11E
100
AcDbEntity
  8
0
  6
Continuous
 62
     7
370
    15
100
AcDbCircle
 10
0.0659249826
 20
0.0404282808
 30
0.0
 40
3.826767145048912
100
AcDbArc
 50
2.487128189
 51
57.5128719567
  0
ARC
  5
18F
330
11E
100
AcDbEntity
  8
0
  6
Continuous
 62
     7
370
    15
100
AcDbCircle
 10
4.4144048115
 20
3.1691847294
 30
0.0
 40
2.295227806391083
100
AcDbArc
 50
122.4763035594
 51
177.523696295
  0
ARC
  5
190
330
11E
100
AcDbEntity
  8
0
  6
Continuous
 62
     7
370
    15
100
AcDbCircle
 10
-0.1141128484
 20
-0.0635166151
 30
0.0
 40
6.130469405023458
100
AcDbArc
 50
2.5243224443
 51
57.4756777014
  0
ARC
  5
191
330
11E
100
AcDbEntity
  8
0
  6
Continuous
 62
     7
370
    15
100
AcDbCircle
 10
4.9497474683
 20
2.2423112718
 30
0.0
 40
2.295553460324446
100
AcDbArc
 50
242.4805390039
 51
297.5194609961
  0
ARC
  5
192
330
11E
100
AcDbEntity
  8
0
  6
Continuous
 62
     7
370
    15
100
AcDbCircle
 10
9.4318607574
 20
5.4472566494
 30
0.0
 40
6.130436561174841
100
AcDbArc
 50
2.5241628152
 51
57.4758373305
  0
ARC
  5
193
330
11E
100
AcDbEntity
  8
0
  6
Continuous
 62
     7
370
    15
100
AcDbCircle
 10
0.4870146674
 20
0.2835224084
 30
0.0
 40
3.051166399189486
100
AcDbArc
 50
2.3868561234
 51
57.6131440222
  0
ARC
  5
194
330
11E
100
AcDbEntity
  8
0
  6
Continuous
 62
     7
370
    15
100
AcDbCircle
 10
-21.700218103
 20
-12.5296440857
 30
0.0
 40
3.051166399189445
100
AcDbArc
 50
182.3868561234
 51
237.6131440222
  0
ARC
  5
195
330
11E
100
AcDbEntity
  8
0
  6
Continuous
 62
     7
370
    15
100
AcDbCircle
 10
-24.0196444257
 20
17.1090851313
 30
0.0
 40
1.095333210719562
100
AcDbArc
 50
51.2817934449
 51
188.7289583099
  0
ARC
  5
196
330
11E
100
AcDbEntity
  8
0
  6
Continuous
 62
     7
370
    15
100
AcDbCircle
 10
2.8064409901
 20
-29.3552068087
 30
0.0
 40
1.095333210719569
100
AcDbArc
 50
231.2817934449
 51
8.7289583099
  0
ARC
  5
197
330
11E
100
AcDbEntity
  8
0
  6
Continuous
 62
     7
370
    15
100
AcDbCircle
 10
-21.2791284182
 20
-12.2865499582
 30
0.0
 40
3.826767145048971
100
AcDbArc
 50
182.487128189
 51
237.5128719567
  0
ARC
  5
198
330
11E
100
AcDbEntity
  8
0
  6
Continuous
 62
     7
370
    15
100
AcDbCircle
 10
4.9497474683
 20
-27.1531579561
 30
0.0
 40
2.295553460324448
100
AcDbArc
 50
242.4805390039
 51
297.5194609961
  0
ARC
  5
199
330
11E
100
AcDbEntity
  8
0
  6
Continuous
 62
     7
370
    15
100
AcDbCircle
 10
-21.0414393112
 20
17.8645307422
 30
0.0
 40
2.295227806391087
100
AcDbArc
 50
122.4763035594
 51
177.523696295
  0
ARC
  5
19A
330
11E
100
AcDbEntity
  8
0
  6
Continuous
 62
     7
370
    15
100
AcDbCircle
 10
-21.7993076778
 20
-12.5868534821
 30
0.0
 40
1.536804807572071
100
AcDbArc
 50
182.6054784857
 51
237.39452166
  0
ARC
  5
19B
330
11E
100
AcDbEntity
  8
0
  6
Continuous
 62
     7
370
    15
100
AcDbCircle
 10
3.1044595385
 20
-28.2383956559
 30
0.0
 40
0.4367091974284804
100
AcDbArc
 50
230.7967147643
 51
9.2140369905
  0
ARC
  5
19C
330
11E
100
AcDbEntity
  8
0
  6
Continuous
 62
     7
370
    15
100
AcDbCircle
 10
-22.9034494117
 20
16.8086820904
 30
0.0
 40
0.4367091974284776
100
AcDbArc
 50
50.7967147643
 51
189.2140369905
  0
ARC
  5
19D
330
11E
100
AcDbEntity
  8
0
  6
Continuous
 62
     7
370
    15
100
AcDbCircle
 10
-22.7256266659
 20
17.1849494658
 30
0.0
 40
1.316552136999896
100
AcDbArc
 50
154.7429157537
 51
181.6535603747
  0
ARC
  5
19E
330
11E
100
AcDbEntity
  8
0
  6
Continuous
 62
     7
370
    15
100
AcDbCircle
 10
3.5191451292
 20
-28.2728157971
 30
0.0
 40
1.316312788665934
100
AcDbArc
 50
238.3494610783
 51
265.2534632762
  0
ARC
  5
19F
330
11E
100
AcDbEntity
  8
0
  6
Continuous
 62
     7
370
    15
100
AcDbCircle
 10
-20.9931113219
 20
-12.1214400298
 30
0.0
 40
3.051166399189453
100
AcDbArc
 50
182.3868561234
 51
237.6131440222
  0
ARC
  5
1A0
330
11E
100
AcDbEntity
  8
0
  6
Continuous
 62
     7
370
    15
100
AcDbCircle
 10
-12.6069195224
 20
-7.2802007553
 30
0.0
 40
1.536804807572084
100
AcDbArc
 50
182.6054784857
 51
237.39452166
  0
ARC
  5
1A1
330
11E
100
AcDbEntity
  8
0
  6
Continuous
 62
     7
370
    15
100
AcDbCircle
 10
13.5769358047
 20
-23.8857908412
 30
0.0
 40
1.990266663716534
100
AcDbArc
 50
305.3258580115
 51
5.9863223819
  0
ARC
  5
1A2
330
11E
100
AcDbEntity
  8
0
  6
Continuous
 62
     7
370
    15
100
AcDbCircle
 10
-13.8970992729
 20
23.7013222938
 30
0.0
 40
1.989943673160441
100
AcDbArc
 50
54.0171641951
 51
114.6723773758
  0
ARC
  5
1A3
330
11E
100
AcDbEntity
  8
0
  6
Continuous
 62
     7
370
    15
100
AcDbCircle
 10
-9.0311699617
 20
6.6640631267
 30
0.0
 40
2.286398378351369
100
AcDbArc
 50
140.9660337944
 51
183.3297184103
  0
ARC
  5
1A4
330
11E
100
AcDbEntity
  8
0
  6
Continuous
 62
     7
370
    15
100
AcDbCircle
 10
1.0268741795
 20
-9.1872158065
 30
0.0
 40
2.017216109943891
100
AcDbArc
 50
181.1301947688
 51
247.3661273711
  0
ARC
  5
1A5
330
11E
100
AcDbEntity
  8
0
  6
Continuous
 62
     8
370
    15
100
AcDbCircle
 10
4.0312278595
 20
-29.3965907427
 30
0.0
 40
1.990039046395765
100
AcDbArc
 50
305.303922348
 51
5.9883165514
  0
ARC
  5
1A6
330
11E
100
AcDbEntity
  8
0
  6
Continuous
 62
     8
370
    15
100
AcDbCircle
 10
2.8711567144
 20
-30.2842037009
 30
0.0
 40
0.7535167186933103
100
AcDbArc
 50
174.3348352972
 51
234.3821952463
  0
ARC
  5
1A7
330
11E
100
AcDbEntity
  8
0
  6
Continuous
 62
     8
370
    15
100
AcDbCircle
 10
-24.8099077508
 20
17.616439651
 30
0.0
 40
0.7343034123382836
100
AcDbArc
 50
184.8049872682
 51
246.5357152982
  0
ARC
  5
1A8
330
11E
100
AcDbEntity
  8
0
  6
Continuous
 62
     8
370
    15
100
AcDbCircle
 10
-23.4431185067
 20
18.1903426425
 30
0.0
 40
1.990171303978376
100
AcDbArc
 50
54.019158489
 51
114.6504426487
  0
ARC
  5
1A9
330
11E
100
AcDbEntity
  8
0
  6
Continuous
 62
     8
370
    15
100
AcDbCircle
 10
-22.5845571739
 20
-15.5888343785
 30
0.0
 40
0.7536440167929285
100
AcDbArc
 50
174.337576136
 51
234.3502434707
  0
ARC
  5
1AA
330
11E
100
AcDbEntity
  8
0
  6
Continuous
 62
     8
370
    15
100
AcDbCircle
 10
-24.8099661892
 20
-11.7790947017
 30
0.0
 40
0.7342204044216423
100
AcDbArc
 50
184.7822660226
 51
246.537874935
  0
VIEWPORT
  5
1B0
330
11E
100
AcDbEntity
  8
0
100
AcDbViewport
 10
0.0
 20
0.0
 30
0.0
 40
243.84
 41
204.216
 68
     1
 69
     1
 12
0.0
 22
0.0
 13
0.0
 23
0.0
 14
10.0
 24
10.0
 15
10.0
 25
10.0
 16
0.0
 26
0.0
 36
1.0
 17
0.0
 27
0.0
 37
0.0
 42
50.0
 43
0.0
 44
0.0
 45
44.88
 50
0.0
 51
0.0
 72
   100
 90
   557152
  1

281
     0
 71
     1
 74
     0
110
0.0
120
0.0
130
0.0
111
1.0
121
0.0
131
0.0
112
0.0
122
1.0
132
0.0
 79
     0
146
0.0
  0
ENDBLK
  5
121
330
11E
100
AcDbEntity
  8
0
100
AcDbBlockEnd
  0
ENDSEC
  0
SECTION
  2
ENTITIES
  0
CIRCLE
  5
6C
330
1F
100
AcDbEntity
  8
0
  6
Continuous
 62
     7
370
    15
100
AcDbCircle
 10
-12.0
 20
0.0
 30
0.0
 40
4.000000000000011
  0
CIRCLE
  5
6D
330
1F
100
AcDbEntity
  8
0
  6
Continuous
 62
     7
370
    15
100
AcDbCircle
 10
0.0
 20
-12.0
 30
0.0
 40
1.4
  0
CIRCLE
  5
6E
330
1F
100
AcDbEntity
  8
0
  6
Continuous
 62
     7
370
    15
100
AcDbCircle
 10
0.0
 20
12.0
 30
0.0
 40
1.400000000000001
  0
LINE
  5
6F
330
1F
100
AcDbEntity
  8
0
  6
Continuous
 62
     7
370
    15
100
AcDbLine
 10
18.0
 20
20.5
 30
0.0
 11
18.0
 21
22.0
 31
0.0
  0
LINE
  5
70
330
1F
100
AcDbEntity
  8
0
  6
Continuous
 62
     7
370
    15
100
AcDbLine
 10
22.0
 20
18.0
 30
0.0
 11
20.5
 21
18.0
 31
0.0
  0
LINE
  5
71
330
1F
100
AcDbEntity
  8
0
  6
Continuous
 62
     7
370
    15
100
AcDbLine
 10
18.0
 20
20.5
 30
0.0
 11
-18.0
 21
20.5
 31
0.0
  0
LINE
  5
72
330
1F
100
AcDbEntity
  8
0
  6
Continuous
 62
     7
370
    15
100
AcDbLine
 10
-18.0
 20
20.5
 30
0.0
 11
-18.0
 21
22.0
 31
0.0
  0
LINE
  5
73
330
1F
100
AcDbEntity
  8
0
  6
Continuous
 62
     7
370
    15
100
AcDbLine
 10
-18.0
 20
22.0
 30
0.0
 11
18.0
 21
22.0
 31
0.0
  0
LINE
  5
74
330
1F
100
AcDbEntity
  8
0
  6
Continuous
 62
     7
370
    15
100
AcDbLine
 10
-18.0
 20
-20.0
 30
0.0
 11
18.0
 21
-20.0
 31
0.0
  0
LINE
  5
75
330
1F
100
AcDbEntity
  8
0
  6
Continuous
 62
     7
370
    15
100
AcDbLine
 10
20.5
 20
-18.0
 30
0.0
 11
20.5
 21
18.0
 31
0.0
  0
LINE
  5
76
330
1F
100
AcDbEntity
  8
0
  6
Continuous
 62
     7
370
    15
100
AcDbLine
 10
-18.0
 20
-20.5
 30
0.0
 11
18.0
 21
-20.5
 31
0.0
  0
LINE
  5
77
330
1F
100
AcDbEntity
  8
0
  6
Continuous
 62
     7
370
    15
100
AcDbLine
 10
-20.5
 20
18.0
 30
0.0
 11
-20.5
 21
-18.0
 31
0.0
  0
LINE
  5
78
330
1F
100
AcDbEntity
  8
0
  6
Continuous
 62
     7
370
    15
100
AcDbLine
 10
20.0
 20
-18.0
 30
0.0
 11
20.0
 21
18.0
 31
0.0
  0
LINE
  5
79
330
1F
100
AcDbEntity
  8
0
  6
Continuous
 62
     7
370
    15
100
AcDbLine
 10
18.0
 20
20.0
 30
0.0
 11
-18.0
 21
20.0
 31
0.0
  0
LINE
  5
7A
330
1F
100
AcDbEntity
  8
0
  6
Continuous
 62
     7
370
    15
100
AcDbLine
 10
-20.0
 20
18.0
 30
0.0
 11
-20.0
 21
-18.0
 31
0.0
  0
LINE
  5
7B
330
1F
100
AcDbEntity
  8
0
  6
Continuous
 62
     7
370
    15
100
AcDbLine
 10
18.0
 20
-22.0
 30
0.0
 11
18.0
 21
-20.5
 31
0.0
  0
LINE
  5
7C
330
1F
100
AcDbEntity
  8
0
  6
Continuous
 62
     7
370
    15
100
AcDbLine
 10
22.0
 20
-18.0
 30
0.0
 11
20.5
 21
-18.0
 31
0.0
  0
LINE
  5
7D
330
1F
100
AcDbEntity
  8
0
  6
Continuous
 62
     7
370
    15
100
AcDbLine
 10
-20.5
 20
-18.0
 30
0.0
 11
-22.0
 21
-18.0
 31
0.0
  0
LINE
  5
7E
330
1F
100
AcDbEntity
  8
0
  6
Continuous
 62
     7
370
    15
100
AcDbLine
 10
-22.0
 20
-18.0
 30
0.0
 11
-22.0
 21
18.0
 31
0.0
  0
LINE
  5
7F
330
1F
100
AcDbEntity
  8
0
  6
Continuous
 62
     7
370
    15
100
AcDbLine
 10
-20.5
 20
18.0
 30
0.0
 11
-22.0
 21
18.0
 31
0.0
  0
LINE
  5
80
330
1F
100
AcDbEntity
  8
0
  6
Continuous
 62
     7
370
    15
100
AcDbLine
 10
22.0
 20
18.0
 30
0.0
 11
22.0
 21
-18.0
 31
0.0
  0
LINE
  5
81
330
1F
100
AcDbEntity
  8
0
  6
Continuous
 62
     7
370
    15
100
AcDbLine
 10
-18.0
 20
-22.0
 30
0.0
 11
-18.0
 21
-20.5
 31
0.0
  0
LINE
  5
82
330
1F
100
AcDbEntity
  8
0
  6
Continuous
 62
     7
370
    15
100
AcDbLine
 10
18.0
 20
-22.0
 30
0.0
 11
-18.0
 21
-22.0
 31
0.0
  0
LINE
  5
83
330
1F
100
AcDbEntity
  8
0
  6
Continuous
 62
     7
370
    15
100
AcDbLine
 10
19.0
 20
-18.0
 30
0.0
 11
19.0
 21
18.0
 31
0.0
  0
LINE
  5
84
330
1F
100
AcDbEntity
  8
0
  6
Continuous
 62
     7
370
    15
100
AcDbLine
 10
-19.0
 20
18.0
 30
0.0
 11
-19.0
 21
-18.0
 31
0.0
  0
LINE
  5
85
330
1F
100
AcDbEntity
  8
0
  6
Continuous
 62
     7
370
    15
100
AcDbLine
 10
18.0
 20
19.0
 30
0.0
 11
-18.0
 21
19.0
 31
0.0
  0
LINE
  5
86
330
1F
100
AcDbEntity
  8
0
  6
Continuous
 62
     7
370
    15
100
AcDbLine
 10
-18.0
 20
-19.0
 30
0.0
 11
18.0
 21
-19.0
 31
0.0
  0
ARC
  5
87
330
1F
100
AcDbEntity
  8
0
  6
Continuous
 62
     7
370
    15
100
AcDbCircle
 10
18.0
 20
18.0
 30
0.0
 40
2.499999999999989
100
AcDbArc
 50
0.0
 51
90.0
  0
ARC
  5
88
330
1F
100
AcDbEntity
  8
0
  6
Continuous
 62
     7
370
    15
100
AcDbCircle
 10
18.0
 20
18.0
 30
0.0
 40
3.999999999999996
100
AcDbArc
 50
0.0
 51
90.0
  0
ARC
  5
89
330
1F
100
AcDbEntity
  8
0
  6
Continuous
 62
     7
370
    15
100
AcDbCircle
 10
18.0
 20
-18.0
 30
0.0
 40
1.999999999999993
100
AcDbArc
 50
270.0
 51
0.0
  0
ARC
  5
8A
330
1F
100
AcDbEntity
  8
0
  6
Continuous
 62
     7
370
    15
100
AcDbCircle
 10
-18.0
 20
18.0
 30
0.0
 40
2.500000000000004
100
AcDbArc
 50
90.0
 51
180.0
  0
ARC
  5
8B
330
1F
100
AcDbEntity
  8
0
  6
Continuous
 62
     7
370
    15
100
AcDbCircle
 10
18.0
 20
-18.0
 30
0.0
 40
2.5
100
AcDbArc
 50
270.0
 51
0.0
  0
ARC
  5
8C
330
1F
100
AcDbEntity
  8
0
  6
Continuous
 62
     7
370
    15
100
AcDbCircle
 10
-18.0
 20
-18.0
 30
0.0
 40
2.500000000000007
100
AcDbArc
 50
180.0
 51
270.0
  0
ARC
  5
8D
330
1F
100
AcDbEntity
  8
0
  6
Continuous
 62
     7
370
    15
100
AcDbCircle
 10
18.0
 20
18.0
 30
0.0
 40
2.0
100
AcDbArc
 50
0.0
 51
90.0
  0
ARC
  5
8E
330
1F
100
AcDbEntity
  8
0
  6
Continuous
 62
     7
370
    15
100
AcDbCircle
 10
-18.0
 20
18.0
 30
0.0
 40
2.000000000000007
100
AcDbArc
 50
90.0
 51
180.0
  0
ARC
  5
8F
330
1F
100
AcDbEntity
  8
0
  6
Continuous
 62
     7
370
    15
100
AcDbCircle
 10
-18.0
 20
-18.0
 30
0.0
 40
1.999999999999989
100
AcDbArc
 50
180.0
 51
270.0
  0
ARC
  5
90
330
1F
100
AcDbEntity
  8
0
  6
Continuous
 62
     7
370
    15
100
AcDbCircle
 10
18.0
 20
-18.0
 30
0.0
 40
3.999999999999996
100
AcDbArc
 50
270.0
 51
0.0
  0
ARC
  5
91
330
1F
100
AcDbEntity
  8
0
  6
Continuous
 62
     7
370
    15
100
AcDbCircle
 10
-18.0
 20
18.0
 30
0.0
 40
4.0
100
AcDbArc
 50
90.0
 51
180.0
  0
ARC
  5
92
330
1F
100
AcDbEntity
  8
0
  6
Continuous
 62
     7
370
    15
100
AcDbCircle
 10
-18.0
 20
-18.0
 30
0.0
 40
4.000000000000004
100
AcDbArc
 50
180.0
 51
270.0
  0
ARC
  5
93
330
1F
100
AcDbEntity
  8
0
  6
Continuous
 62
     7
370
    15
100
AcDbCircle
 10
-18.0
 20
-18.0
 30
0.0
 40
1.000000000000007
100
AcDbArc
 50
180.0
 51
270.0
  0
ARC
  5
94
330
1F
100
AcDbEntity
  8
0
  6
Continuous
 62
     7
370
    15
100
AcDbCircle
 10
18.0
 20
18.0
 30
0.0
 40
1.000000000000007
100
AcDbArc
 50
0.0
 51
90.0
  0
ARC
  5
95
330
1F
100
AcDbEntity
  8
0
  6
Continuous
 62
     7
370
    15
100
AcDbCircle
 10
-18.0
 20
18.0
 30
0.0
 40
0.9999999999999964
100
AcDbArc
 50
90.0
 51
180.0
  0
ARC
  5
96
330
1F
100
AcDbEntity
  8
0
  6
Continuous
 62
     7
370
    15
100
AcDbCircle
 10
18.0
 20
-18.0
 30
0.0
 40
1.000000000000007
100
AcDbArc
 50
270.0
 51
0.0
  0
LINE
  5
A8
330
1B
100
AcDbEntity
 67
     1
  8
0
  6
Continuous
 62
     7
370
    15
100
AcDbLine
 10
20.5
 20
-15.0
 30
0.0
 11
-20.5
 21
-15.0
 31
0.0
  0
LINE
  5
A9
330
1B
100
AcDbEntity
 67
     1
  8
0
  6
Continuous
 62
     7
370
    15
100
AcDbLine
 10
-18.0
 20
-15.0
 30
0.0
 11
-18.0
 21
0.0
 31
0.0
  0
LINE
  5
AA
330
1B
100
AcDbEntity
 67
     1
  8
0
  6
Continuous
 62
     7
370
    15
100
AcDbLine
 10
-22.0
 20
-13.5
 30
0.0
 11
22.0
 21
-13.5
 31
0.0
  0
LINE
  5
AB
330
1B
100
AcDbEntity
 67
     1
  8
0
  6
Continuous
 62
     7
370
    15
100
AcDbLine
 10
18.0
 20
-15.0
 30
0.0
 11
18.0
 21
0.0
 31
0.0
  0
LINE
  5
AC
330
1B
100
AcDbEntity
 67
     1
  8
0
  6
Continuous
 62
     7
370
    15
100
AcDbLine
 10
22.0
 20
0.0
 30
0.0
 11
-22.0
 21
0.0
 31
0.0
  0
LINE
  5
AD
330
1B
100
AcDbEntity
 67
     1
  8
0
  6
Continuous
 62
     7
370
    15
100
AcDbLine
 10
22.0
 20
-13.5
 30
0.0
 11
22.0
 21
0.0
 31
0.0
  0
LINE
  5
AE
330
1B
100
AcDbEntity
 67
     1
  8
0
  6
Continuous
 62
     7
370
    15
100
AcDbLine
 10
-22.0
 20
-13.5
 30
0.0
 11
-22.0
 21
0.0
 31
0.0
  0
ARC
  5
AF
330
1B
100
AcDbEntity
 67
     1
  8
0
  6
Continuous
 62
     7
370
    15
100
AcDbCircle
 10
20.5
 20
-13.5
 30
0.0
 40
1.500000000000009
100
AcDbArc
 50
270.0
 51
0.0
  0
ARC
  5
B0
330
1B
100
AcDbEntity
 67
     1
  8
0
  6
Continuous
 62
     7
370
    15
100
AcDbCircle
 10
-20.5
 20
-13.5
 30
0.0
 40
1.500000000000012
100
AcDbArc
 50
180.0
 51
270.0
  0
VIEWPORT
  5
1AB
330
1B
100
AcDbEntity
 67
     1
  8
0
100
AcDbViewport
 10
0.0
 20
0.0
 30
0.0
 40
243.84
 41
204.216
 68
     1
 69
     1
 12
0.0
 22
0.0
 13
0.0
 23
0.0
 14
10.0
 24
10.0
 15
10.0
 25
10.0
 16
0.0
 26
0.0
 36
1.0
 17
0.0
 27
0.0
 37
0.0
 42
50.0
 43
0.0
 44
0.0
 45
44.88
 50
0.0
 51
0.0
 72
   100
 90
   557152
  1

281
     0
 71
     1
 74
     0
110
0.0
120
0.0
130
0.0
111
1.0
121
0.0
131
0.0
112
0.0
122
1.0
132
0.0
 79
     0
146
0.0
  0
ENDSEC
  0
SECTION
  2
OBJECTS
  0
DICTIONARY
  5
C
330
0
100
AcDbDictionary
281
     1
  3
ACAD_GROUP
350
D
  3
ACAD_LAYOUT
350
1A
  3
ACAD_MLINESTYLE
350
17
  3
ACAD_PLOTSETTINGS
350
19
  3
ACAD_PLOTSTYLENAME
350
E
  0
DICTIONARY
  5
D
102
{ACAD_REACTORS
330
C
102
}
330
C
100
AcDbDictionary
281
     1
  0
DICTIONARY
  5
1A
102
{ACAD_REACTORS
330
C
102
}
330
C
100
AcDbDictionary
281
     1
  3
_Arrière
350
CC
  3
_Dessous
350
101
  3
_Dessus
350
1E
  3
_Droite
350
E3
  3
_Gauche
350
26
  3
_Isométrique
350
11F
  3
Model
350
22
  0
DICTIONARY
  5
17
102
{ACAD_REACTORS
330
C
102
}
330
C
100
AcDbDictionary
281
     1
  3
Standard
350
18
  0
DICTIONARY
  5
19
102
{ACAD_REACTORS
330
C
102
}
330
C
100
AcDbDictionary
281
     1
  0
ACDBDICTIONARYWDFLT
  5
E
102
{ACAD_REACTORS
330
C
102
}
330
C
100
AcDbDictionary
281
     1
  3
Normal
350
F
100
AcDbDictionaryWithDefault
340
F
  0
LAYOUT
  5
CC
102
{ACAD_REACTORS
330
1A
102
}
330
1A
100
AcDbPlotSettings
  1

  2
none_device
  4

  6

 40
0.0
 41
0.0
 42
0.0
 43
0.0
 44
0.0
 45
0.0
 46
0.0
 47
0.0
 48
0.0
 49
0.0
140
0.0
141
0.0
142
1.0
143
1.0
 70
   688
 72
     0
 73
     0
 74
     5
  7

 75
    16
147
1.0
148
0.0
149
0.0
100
AcDbLayout
  1
_Arrière
 70
     1
 71
     3
 10
0.0
 20
0.0
 11
0.0
 21
0.0
 12
0.0
 22
0.0
 32
0.0
 14
0.0
 24
0.0
 34
0.0
 15
0.0
 25
0.0
 35
0.0
146
0.0
 13
0.0
 23
0.0
 33
0.0
 16
1.0
 26
0.0
 36
0.0
 17
0.0
 27
1.0
 37
0.0
 76
     0
330
CB
331
1AD
  0
LAYOUT
  5
101
102
{ACAD_REACTORS
330
1A
102
}
330
1A
100
AcDbPlotSettings
  1

  2
none_device
  4

  6

 40
0.0
 41
0.0
 42
0.0
 43
0.0
 44
0.0
 45
0.0
 46
0.0
 47
0.0
 48
0.0
 49
0.0
140
0.0
141
0.0
142
1.0
143
1.0
 70
   688
 72
     0
 73
     0
 74
     5
  7

 75
    16
147
1.0
148
0.0
149
0.0
100
AcDbLayout
  1
_Dessous
 70
     1
 71
     5
 10
0.0
 20
0.0
 11
0.0
 21
0.0
 12
0.0
 22
0.0
 32
0.0
 14
0.0
 24
0.0
 34
0.0
 15
0.0
 25
0.0
 35
0.0
146
0.0
 13
0.0
 23
0.0
 33
0.0
 16
1.0
 26
0.0
 36
0.0
 17
0.0
 27
1.0
 37
0.0
 76
     0
330
100
331
1AF
  0
LAYOUT
  5
1E
102
{ACAD_REACTORS
330
1A
102
}
330
1A
100
AcDbPlotSettings
  1

  2
none_device
  4
ANSI_A_(11.00_x_8.50_Inches)
  6

 40
6.35
 41
19.05
 42
6.35000508
 43
19.05000254
 44
279.4
 45
215.9
 46
133.34999746
 47
88.89999873
 48
0.0
 49
0.0
140
0.0
141
0.0
142
0.19125
143
1.0
 70
  1696
 72
     0
 73
     0
 74
     5
  7

 75
    16
147
1.0
148
0.0
149
0.0
100
AcDbLayout
  1
_Dessus
 70
     1
 71
     1
 10
0.0
 20
0.0
 11
420.0
 21
297.0
 12
0.0
 22
0.0
 32
0.0
 14
-22.0
 24
-22.0
 34
0.0
 15
22.0
 25
22.0
 35
0.0
146
0.0
 13
0.0
 23
0.0
 33
0.0
 16
1.0
 26
0.0
 36
0.0
 17
0.0
 27
1.0
 37
0.0
 76
     0
330
1B
331
1AB
  0
LAYOUT
  5
E3
102
{ACAD_REACTORS
330
1A
102
}
330
1A
100
AcDbPlotSettings
  1

  2
none_device
  4

  6

 40
0.0
 41
0.0
 42
0.0
 43
0.0
 44
0.0
 45
0.0
 46
0.0
 47
0.0
 48
0.0
 49
0.0
140
0.0
141
0.0
142
1.0
143
1.0
 70
   688
 72
     0
 73
     0
 74
     5
  7

 75
    16
147
1.0
148
0.0
149
0.0
100
AcDbLayout
  1
_Droite
 70
     1
 71
     4
 10
0.0
 20
0.0
 11
0.0
 21
0.0
 12
0.0
 22
0.0
 32
0.0
 14
0.0
 24
0.0
 34
0.0
 15
0.0
 25
0.0
 35
0.0
146
0.0
 13
0.0
 23
0.0
 33
0.0
 16
1.0
 26
0.0
 36
0.0
 17
0.0
 27
1.0
 37
0.0
 76
     0
330
E2
331
1AE
  0
LAYOUT
  5
26
102
{ACAD_REACTORS
330
1A
102
}
330
1A
100
AcDbPlotSettings
  1

  2
none_device
  4

  6

 40
0.0
 41
0.0
 42
0.0
 43
0.0
 44
0.0
 45
0.0
 46
0.0
 47
0.0
 48
0.0
 49
0.0
140
0.0
141
0.0
142
1.0
143
1.0
 70
   688
 72
     0
 73
     0
 74
     5
  7

 75
    16
147
1.0
148
0.0
149
0.0
100
AcDbLayout
  1
_Gauche
 70
     1
 71
     2
 10
0.0
 20
0.0
 11
0.0
 21
0.0
 12
0.0
 22
0.0
 32
0.0
 14
0.0
 24
0.0
 34
0.0
 15
0.0
 25
0.0
 35
0.0
146
0.0
 13
0.0
 23
0.0
 33
0.0
 16
1.0
 26
0.0
 36
0.0
 17
0.0
 27
1.0
 37
0.0
 76
     0
330
23
331
1AC
  0
LAYOUT
  5
11F
102
{ACAD_REACTORS
330
1A
102
}
330
1A
100
AcDbPlotSettings
  1

  2
none_device
  4

  6

 40
0.0
 41
0.0
 42
0.0
 43
0.0
 44
0.0
 45
0.0
 46
0.0
 47
0.0
 48
0.0
 49
0.0
140
0.0
141
0.0
142
1.0
143
1.0
 70
   688
 72
     0
 73
     0
 74
     5
  7

 75
    16
147
1.0
148
0.0
149
0.0
100
AcDbLayout
  1
_Isométrique
 70
     1
 71
     6
 10
0.0
 20
0.0
 11
0.0
 21
0.0
 12
0.0
 22
0.0
 32
0.0
 14
0.0
 24
0.0
 34
0.0
 15
0.0
 25
0.0
 35
0.0
146
0.0
 13
0.0
 23
0.0
 33
0.0
 16
1.0
 26
0.0
 36
0.0
 17
0.0
 27
1.0
 37
0.0
 76
     0
330
11E
331
1B0
  0
LAYOUT
  5
22
102
{ACAD_REACTORS
330
1A
102
}
330
1A
100
AcDbPlotSettings
  1

  2
none_device
  4

  6

 40
0.0
 41
0.0
 42
0.0
 43
0.0
 44
0.0
 45
0.0
 46
0.0
 47
0.0
 48
0.0
 49
0.0
140
0.0
141
0.0
142
1.0
143
1.0
 70
  1712
 72
     0
 73
     0
 74
     0
  7

 75
     0
147
1.0
148
0.0
149
0.0
100
AcDbLayout
  1
Model
 70
     1
 71
     0
 10
0.0
 20
0.0
 11
420.0
 21
297.0
 12
0.0
 22
0.0
 32
0.0
 14
-22.0
 24
-22.0
 34
0.0
 15
22.0
 25
22.0
 35
0.0
146
0.0
 13
0.0
 23
0.0
 33
0.0
 16
1.0
 26
0.0
 36
0.0
 17
0.0
 27
1.0
 37
0.0
 76
     0
330
1F
331
29
  0
MLINESTYLE
  5
18
102
{ACAD_REACTORS
330
17
102
}
330
17
100
AcDbMlineStyle
  2
Standard
 70
     0
  3

 62
   256
 51
90.0
 52
90.0
 71
     2
 49
0.5
 62
   256
  6
BYLAYER
 49
-0.5
 62
   256
  6
BYLAYER
  0
ACDBPLACEHOLDER
  5
F
102
{ACAD_REACTORS
330
E
102
}
330
E
  0
ENDSEC
  0
EOF
