  0
SECTION
  2
HEADER
  9
$ACADVER
  1
AC1014
  9
$ACADMAINTVER
 70
     0
  9
$DWGCODEPAGE
  3
ANSI_1252
  9
$INSBASE
 10
0.0
 20
0.0
 30
0.0
  9
$EXTMIN
 10
0.0
 20
0.0
 30
0.0
  9
$EXTMAX
 10
700.0
 20
500.0
 30
0.0
  9
$LIMMIN
 10
0.0
 20
0.0
  9
$LIMMAX
 10
12.0
 20
9.0
  9
$ORTHOMODE
 70
     0
  9
$REGENMODE
 70
     1
  9
$FILLMODE
 70
     0
  9
$QTEXTMODE
 70
     0
  9
$MIRRTEXT
 70
     1
  9
$DRAGMODE
 70
     2
  9
$LTSCALE
 40
1.0
  9
$OSMODE
 70
     0
  9
$ATTMODE
 70
     1
  9
$TEXTSIZE
 40
0.2
  9
$TRACEWID
 40
0.05
  9
$TEXTSTYLE
  7
STANDARD
  9
$CLAYER
  8
0
  9
$CELTYPE
  6
BYLAYER
  9
$CECOLOR
 62
   256
  9
$CELTSCALE
 40
1.0
  9
$DELOBJ
 70
     1
  9
$DISPSILH
 70
     0
  9
$DIMSCALE
 40
1.0
  9
$DIMASZ
 40
0.18
  9
$DIMEXO
 40
0.0625
  9
$DIMDLI
 40
0.38
  9
$DIMRND
 40
0.0
  9
$DIMDLE
 40
0.0
  9
$DIMEXE
 40
0.18
  9
$DIMTP
 40
0.0
  9
$DIMTM
 40
0.0
  9
$DIMTXT
 40
0.18
  9
$DIMCEN
 40
0.09
  9
$DIMTSZ
 40
0.0
  9
$DIMTOL
 70
     0
  9
$DIMLIM
 70
     0
  9
$DIMTIH
 70
     0
  9
$DIMTOH
 70
     0
  9
$DIMSE1
 70
     0
  9
$DIMSE2
 70
     0
  9
$DIMTAD
 70
     1
  9
$DIMZIN
 70
     0
  9
$DIMBLK
  1

  9
$DIMASO
 70
     1
  9
$DIMSHO
 70
     1
  9
$DIMPOST
  1

  9
$DIMAPOST
  1

  9
$DIMALT
 70
     0
  9
$DIMALTD
 70
     2
  9
$DIMALTF
 40
25.4
  9
$DIMLFAC
 40
1.0
  9
$DIMTOFL
 70
     0
  9
$DIMTVP
 40
0.0
  9
$DIMTIX
 70
     0
  9
$DIMSOXD
 70
     0
  9
$DIMSAH
 70
     0
  9
$DIMBLK1
  1

  9
$DIMBLK2
  1

  9
$DIMSTYLE
  2
STANDARD
  9
$DIMCLRD
 70
     0
  9
$DIMCLRE
 70
     0
  9
$DIMCLRT
 70
     0
  9
$DIMTFAC
 40
1.0
  9
$DIMGAP
 40
0.09
  9
$DIMJUST
 70
     0
  9
$DIMSD1
 70
     0
  9
$DIMSD2
 70
     0
  9
$DIMTOLJ
 70
     1
  9
$DIMTZIN
 70
     0
  9
$DIMALTZ
 70
     0
  9
$DIMALTTZ
 70
     0
  9
$DIMFIT
 70
     3
  9
$DIMUPT
 70
     0
  9
$DIMUNIT
 70
     2
  9
$DIMDEC
 70
     2
  9
$DIMTDEC
 70
     4
  9
$DIMALTU
 70
     2
  9
$DIMALTTD
 70
     2
  9
$DIMTXSTY
  7
STANDARD
  9
$DIMAUNIT
 70
     0
  9
$LUNITS
 70
     2
  9
$LUPREC
 70
     4
  9
$SKETCHINC
 40
0.1
  9
$FILLETRAD
 40
0.5
  9
$AUNITS
 70
     0
  9
$AUPREC
 70
     0
  9
$MENU
  1
.
  9
$ELEVATION
 40
0.0
  9
$PELEVATION
 40
0.0
  9
$THICKNESS
 40
0.0
  9
$LIMCHECK
 70
     0
  9
$BLIPMODE
 70
     0
  9
$CHAMFERA
 40
0.5
  9
$CHAMFERB
 40
0.5
  9
$CHAMFERC
 40
1.0
  9
$CHAMFERD
 40
0.0
  9
$SKPOLY
 70
     0
  9
$TDCREATE
 40
2450772.666465926
  9
$TDUPDATE
 40
2458063.941620370
  9
$TDINDWG
 40
0.0011564931
  9
$TDUSRTIMER
 40
0.0000000000
  9
$USRTIMER
 70
     1
  9
$ANGBASE
 50
0.0
  9
$ANGDIR
 70
     0
  9
$PDMODE
 70
     0
  9
$PDSIZE
 40
0.0
  9
$PLINEWID
 40
0.0
  9
$COORDS
 70
     1
  9
$SPLFRAME
 70
     0
  9
$SPLINETYPE
 70
     6
  9
$SPLINESEGS
 70
     8
  9
$ATTDIA
 70
     0
  9
$ATTREQ
 70
     1
  9
$HANDLING
 70
     1
  9
$HANDSEED
  5
98
  9
$SURFTAB1
 70
     6
  9
$SURFTAB2
 70
     6
  9
$SURFTYPE
 70
     6
  9
$SURFU
 70
     6
  9
$SURFV
 70
     6
  9
$UCSNAME
  2

  9
$UCSORG
 10
0.0
 20
0.0
 30
0.0
  9
$UCSXDIR
 10
1.0
 20
0.0
 30
0.0
  9
$UCSYDIR
 10
0.0
 20
1.0
 30
0.0
  9
$PUCSNAME
  2

  9
$PUCSORG
 10
0.0
 20
0.0
 30
0.0
  9
$PUCSXDIR
 10
1.0
 20
0.0
 30
0.0
  9
$PUCSYDIR
 10
0.0
 20
1.0
 30
0.0
  9
$USERI1
 70
     0
  9
$USERI2
 70
     0
  9
$USERI3
 70
     0
  9
$USERI4
 70
     0
  9
$USERI5
 70
     0
  9
$USERR1
 40
0.0
  9
$USERR2
 40
0.0
  9
$USERR3
 40
0.0
  9
$USERR4
 40
0.0
  9
$USERR5
 40
0.0
  9
$WORLDVIEW
 70
     1
  9
$SHADEDGE
 70
     3
  9
$SHADEDIF
 70
    70
  9
$TILEMODE
 70
     1
  9
$MAXACTVP
 70
    48
  9
$PINSBASE
 10
0.0
 20
0.0
 30
0.0
  9
$PLIMCHECK
 70
     0
  9
$PEXTMIN
 10
0.0
 20
0.0
 30
0.0
  9
$PEXTMAX
 10
0.0
 20
0.0
 30
0.0
  9
$PLIMMIN
 10
0.0
 20
0.0
  9
$PLIMMAX
 10
12.0
 20
9.0
  9
$UNITMODE
 70
     0
  9
$VISRETAIN
 70
     1
  9
$PLINEGEN
 70
     0
  9
$PSLTSCALE
 70
     1
  9
$TREEDEPTH
 70
  3020
  9
$PICKSTYLE
 70
     1
  9
$CMLSTYLE
  2
STANDARD
  9
$CMLJUST
 70
     0
  9
$CMLSCALE
 40
1.0
  9
$PROXYGRAPHICS
 70
     1
  9
$MEASUREMENT
 70
     0
  0
ENDSEC
  0
SECTION
  2
CLASSES
  0
CLASS
  1
LWPOLYLINE
  2
AcDbPolyline
  3
"AutoCAD"
 90
        0
280
     0
281
     1
  0
CLASS
  1
IMAGE
  2
AcDbRasterImage
  3
ISM
 90
      127
280
     0
281
     1
  0
CLASS
  1
OLE2FRAME
  2
AcDbOle2Frame
  3
""
 90
        0
280
     0
281
     1
  0
CLASS
  1
HATCH
  2
AcDbHatch
  3
"ACAD_SEDONA"
 90
        0
280
     0
281
     1
  0
CLASS
  1
DICTIONARYVAR
  2
AcDbDictionaryVar
  3
"AutoCAD"
 90
        0
280
     0
281
     0
  0
CLASS
  1
RASTERVARIABLES
  2
AcDbRasterVariables
  3
ISM
 90
        0
280
     0
281
     0
  0
CLASS
  1
IMAGEDEF
  2
AcDbRasterImageDef
  3
ISM
 90
        0
280
     0
281
     0
  0
CLASS
  1
IMAGEDEF_REACTOR
  2
AcDbRasterImageDefReactor
  3
ISM
 90
        1
280
     0
281
     0
  0
CLASS
  1
IDBUFFER
  2
AcDbIdBuffer
  3
"Acad"
 90
        0
280
     0
281
     0
  0
CLASS
  1
SPATIAL_FILTER
  2
AcDbSpatialFilter
  3
"Acad"
 90
        0
280
     0
281
     0
  0
CLASS
  1
XRECORD
  2
AcDbXrecord
  3
"<Built In>"
 90
        0
280
     0
281
     0
  0
CLASS
  1
SORTENTSTABLE
  2
AcDbSortentsTable
  3
"AutoCAD"
 90
        0
280
     0
281
     0
  0
CLASS
  1
LAYER_INDEX
  2
AcDbLayerIndex
  3
"Acad"
 90
        0
280
     0
281
     0
  0
CLASS
  1
SPATIAL_INDEX
  2
AcDbSpatialIndex
  3
"Acad"
 90
        0
280
     0
281
     0
  0
CLASS
  1
OBJECT_PTR
  2
CAseDLPNTableRecord
  3
"ASE-LPNTableRecord"
 90
        1
280
     0
281
     0
  0
CLASS
  1
LAYOUT
  2
AcDbLayout
  3
"AutoCAD 2000"
 90
        1
280
     0
281
     0
  0
CLASS
  1
PLOTSETTINGS
  2
AcDbPlotSettings
  3
"AutoCAD 2000"
 90
        1
280
     0
281
     0
  0
CLASS
  1
ACDBDICTIONARYWDFLT
  2
AcDbDictionaryWithDefault
  3
"AutoCAD 2000"
 90
        1
280
     0
281
     0
  0
CLASS
  1
ACDBPLACEHOLDER
  2
AcDbPlaceHolder
  3
"AutoCAD 2000"
 90
        1
280
     0
281
     0
  0
CLASS
  1
VBA_PROJECT
  2
AcDbVbaProject
  3
"acadvba"
 90
        1
280
     0
281
     0
  0
CLASS
  1
WIPEOUT
  2
AcDbWipeout
  3
WipeOut|AutoCAD Express Tool|expresstools@autodesk.com
 90
      127
280
     0
281
     1
  0
CLASS
  1
WIPEOUTVARIABLES
  2
AcDbWipeoutVariables
  3
WipeOut|AutoCAD Express Tool|expresstools@autodesk.com
 90
        0
280
     0
281
     0
  0
CLASS
  1
RTEXT
  2
RText
  3
RText|AutoCAD Express Tool|expresstools@autodesk.com
 90
        0
280
     0
281
     1
  0
CLASS
  1
ARCALIGNEDTEXT
  2
AcDbArcAlignedText
  3
ATEXT|AutoCAD Express Tool|expresstools@autodesk.com
 90
        0
280
     0
281
     1
  0
ENDSEC
  0
SECTION
  2
TABLES
  0
TABLE
  2
VPORT
  5
8
100
AcDbSymbolTable
 70
     1
  0
VPORT
  5
25
100
AcDbSymbolTableRecord
100
AcDbViewportTableRecord
  2
*ACTIVE
 70
     0
 10
0.0
 20
0.0
 11
1.0
 21
1.0
 12
350.0
 22
250.0
 13
0.0
 23
0.0
 14
0.5
 24
0.5
 15
0.5
 25
0.5
 16
0.0
 26
0.0
 36
1.0
 17
0.0
 27
0.0
 37
0.0
 40
500.0
 41
1.4
 42
50.0
 43
0.0
 44
0.0
 50
0.0
 51
0.0
 71
     0
 72
   100
 73
     1
 74
     1
 75
     0
 76
     0
 77
     0
 78
     0
  0
ENDTAB
  0
TABLE
  2
LTYPE
  5
5
100
AcDbSymbolTable
 70
     3
  0
LTYPE
  5
12
100
AcDbSymbolTableRecord
100
AcDbLinetypeTableRecord
  2
BYBLOCK
 70
    64
  3

 72
    65
 73
     0
 40
0.0
  0
LTYPE
  5
13
100
AcDbSymbolTableRecord
100
AcDbLinetypeTableRecord
  2
BYLAYER
 70
    64
  3

 72
    65
 73
     0
 40
0.0
  0
LTYPE
  5
14
100
AcDbSymbolTableRecord
100
AcDbLinetypeTableRecord
  2
CONTINUOUS
 70
     0
  3
Solid line
 72
    65
 73
     0
 40
0.0
  0
ENDTAB
  0
TABLE
  2
LAYER
  5
2
100
AcDbSymbolTable
 70
     3
  0
LAYER
  5
E
100
AcDbSymbolTableRecord
100
AcDbLayerTableRecord
  2
0
 70
     0
 62
     7
  6
CONTINUOUS
  0
LAYER
  5
6F
100
AcDbSymbolTableRecord
100
AcDbLayerTableRecord
  2
ANNOTATIONS
 70
     0
 62
     7
  6
CONTINUOUS
  0
LAYER
  5
90
100
AcDbSymbolTableRecord
100
AcDbLayerTableRecord
  2
MESURE
 70
     0
 62
     7
  6
CONTINUOUS
  0
ENDTAB
  0
TABLE
  2
STYLE
  5
3
100
AcDbSymbolTable
 70
     1
  0
STYLE
  5
F
100
AcDbSymbolTableRecord
100
AcDbTextStyleTableRecord
  2
STANDARD
 70
     0
 40
0.0
 41
1.0
 50
0.0
 71
     0
 42
0.2
  3
txt.shx
  4

  0
ENDTAB
  0
TABLE
  2
VIEW
  5
6
100
AcDbSymbolTable
 70
     0
  0
ENDTAB
  0
TABLE
  2
UCS
  5
7
100
AcDbSymbolTable
 70
     0
  0
ENDTAB
  0
TABLE
  2
APPID
  5
9
100
AcDbSymbolTable
 70
     1
  0
APPID
  5
10
100
AcDbSymbolTableRecord
100
AcDbRegAppTableRecord
  2
ACAD
 70
     0
  0
ENDTAB
  0
TABLE
  2
DIMSTYLE
  5
A
100
AcDbSymbolTable
 70
     1
  0
DIMSTYLE
105
1D
100
AcDbSymbolTableRecord
100
AcDbDimStyleTableRecord
  2
STANDARD
 70
     0
  3

  4

  5

  6

  7

 40
1.0
 41
0.18
 42
0.0625
 43
0.38
 44
0.18
 45
0.0
 46
0.0
 47
0.0
 48
0.0
 71
     0
 72
     0
 73
     1
 74
     1
 75
     0
 76
     0
 77
     0
 78
     0
140
0.18
141
0.09
142
0.0
143
25.4
144
1.0
145
0.0
146
1.0
147
0.09
170
     0
171
     2
172
     0
173
     0
174
     0
175
     0
176
     0
177
     0
178
     0
270
     2
271
     4
272
     4
273
     2
274
     2
275
     0
280
     0
281
     0
282
     0
283
     1
284
     0
285
     0
286
     0
287
     3
288
     0
340
F
  0
ENDTAB
  0
TABLE
  2
BLOCK_RECORD
  5
1
100
AcDbSymbolTable
 70
     9
  0
BLOCK_RECORD
  5
18
100
AcDbSymbolTableRecord
100
AcDbBlockTableRecord
  2
*MODEL_SPACE
  0
BLOCK_RECORD
  5
15
100
AcDbSymbolTableRecord
100
AcDbBlockTableRecord
  2
*PAPER_SPACE
  0
BLOCK_RECORD
  5
65
100
AcDbSymbolTableRecord
100
AcDbBlockTableRecord
  2
RECTANGLE
  0
BLOCK_RECORD
  5
69
100
AcDbSymbolTableRecord
100
AcDbBlockTableRecord
  2
CERCLE__ELLIPSE
  0
BLOCK_RECORD
  5
6D
100
AcDbSymbolTableRecord
100
AcDbBlockTableRecord
  2
OUTIL_DE_MESURE
  0
BLOCK_RECORD
  5
7D
100
AcDbSymbolTableRecord
100
AcDbBlockTableRecord
  2
COIN_CHANFREIN\U+00E9
  0
BLOCK_RECORD
  5
81
100
AcDbSymbolTableRecord
100
AcDbBlockTableRecord
  2
SEGMENT_LONGUEUR_VARIABLE
  0
BLOCK_RECORD
  5
85
100
AcDbSymbolTableRecord
100
AcDbBlockTableRecord
  2
TRGLE_REC___2_C\U+00F4T\5
  0
BLOCK_RECORD
  5
89
100
AcDbSymbolTableRecord
100
AcDbBlockTableRecord
  2
ANGLE_PERPENDICULAIRE
  0
BLOCK_RECORD
  5
8E
100
AcDbSymbolTableRecord
100
AcDbBlockTableRecord
  2
L\U+00E9GENDE_ENCADR\U+07
  0
BLOCK_RECORD
  5
94
100
AcDbSymbolTableRecord
100
AcDbBlockTableRecord
  2
TEXTE_12_PT
  0
ENDTAB
  0
ENDSEC
  0
SECTION
  2
BLOCKS
  0
BLOCK
  5
19
100
AcDbEntity
  8
0
100
AcDbBlockBegin
  2
*MODEL_SPACE
 70
     0
 10
0.0
 20
0.0
 30
0.0
  3
*MODEL_SPACE
  1

  0
ENDBLK
  5
1A
100
AcDbEntity
  8
0
100
AcDbBlockEnd
  0
BLOCK
  5
16
100
AcDbEntity
 67
     1
  8
0
100
AcDbBlockBegin
  2
*PAPER_SPACE
 70
     0
 10
0.0
 20
0.0
 30
0.0
  3
*PAPER_SPACE
  1

  0
ENDBLK
  5
17
100
AcDbEntity
 67
     1
  8
0
100
AcDbBlockEnd
  0
BLOCK
  5
66
100
AcDbEntity
  8
0
100
AcDbBlockBegin
  2
RECTANGLE
 70
     0
 10
0.0
 20
0.0
 30
0.0
  3
RECTANGLE
  1

  0
LWPOLYLINE
  5
67
102
{ACAD_REACTORS
330
71
102
}
100
AcDbEntity
  8
0
  6
CONTINUOUS
 62
     7
100
AcDbPolyline
 90
        4
 70
     1
 10
40.0
 20
37.5
 10
60.0
 20
37.5
 10
60.0
 20
62.5
 10
40.0
 20
62.5
  0
ENDBLK
  5
68
100
AcDbEntity
  8
0
100
AcDbBlockEnd
  0
BLOCK
  5
6A
100
AcDbEntity
  8
0
100
AcDbBlockBegin
  2
CERCLE__ELLIPSE
 70
     0
 10
0.0
 20
0.0
 30
0.0
  3
CERCLE__ELLIPSE
  1

  0
LWPOLYLINE
  5
6B
102
{ACAD_REACTORS
330
71
102
}
100
AcDbEntity
  8
0
  6
CONTINUOUS
 62
     7
100
AcDbPolyline
 90
        2
 70
     1
 10
37.5
 20
50.0
 42
-1.0
 10
62.5
 20
50.0
 42
-1.0
  0
ENDBLK
  5
6C
100
AcDbEntity
  8
0
100
AcDbBlockEnd
  0
BLOCK
  5
6E
100
AcDbEntity
  8
0
100
AcDbBlockBegin
  2
OUTIL_DE_MESURE
 70
     0
 10
0.0
 20
0.0
 30
0.0
  3
OUTIL_DE_MESURE
  1

  0
LWPOLYLINE
  5
70
102
{ACAD_REACTORS
330
71
102
}
100
AcDbEntity
  8
ANNOTATIONS
  6
CONTINUOUS
100
AcDbPolyline
 90
        6
 70
     1
 10
0.0
 20
0.0
 10
0.0
 20
6.322825
 42
-0.414223
 10
1.580706
 20
7.903531
 10
14.04066
 20
7.903531
 42
-0.414223
 10
17.202072
 20
4.742119
 10
17.202072
 20
0.0
  0
HATCH
  5
71
100
AcDbEntity
  8
ANNOTATIONS
 62
   254
100
AcDbHatch
 10
0.0
 20
0.0
 30
0.0
210
0.0
220
0.0
230
1.0
  2
SOLID
 70
     1
 71
     1
 91
        1
 92
        3
 72
     1
 73
     1
 93
        6
 10
0.0
 20
0.0
 42
0.0
 10
0.0
 20
6.3228247836371523
 42
-0.4142231524190839
 10
1.5807061959093098
 20
7.9035309795464386
 42
0.0
 10
14.040659567717709
 20
7.9035309795464386
 42
-0.4142231524190798
 10
17.202071959536283
 20
4.7421185877278633
 42
0.0
 10
17.202071959536283
 20
0.0
 42
0.0
 97
       41
330
31
330
32
330
33
330
34
330
35
330
36
330
37
330
38
330
3B
330
3C
330
3D
330
3E
330
3F
330
40
330
41
330
43
330
44
330
45
330
46
330
47
330
48
330
49
330
4B
330
4C
330
4D
330
4E
330
4F
330
50
330
51
330
53
330
54
330
55
330
56
330
57
330
58
330
59
330
5A
330
62
330
67
330
6B
330
70
 75
     0
 76
     1
 98
        0
  0
LINE
  5
72
100
AcDbEntity
  8
ANNOTATIONS
  6
CONTINUOUS
100
AcDbLine
 10
17.202072
 20
0.790353
 30
0.0
 11
30.0
 21
0.790353
 31
0.0
  0
LINE
  5
73
100
AcDbEntity
  8
ANNOTATIONS
  6
CONTINUOUS
100
AcDbLine
 10
30.0
 20
1.580706
 30
0.0
 11
30.0
 21
0.0
 31
0.0
  0
LINE
  5
74
100
AcDbEntity
  8
ANNOTATIONS
  6
CONTINUOUS
100
AcDbLine
 10
27.867012
 20
0.790353
 30
0.0
 11
27.867012
 21
1.18553
 31
0.0
  0
LINE
  5
75
100
AcDbEntity
  8
ANNOTATIONS
  6
CONTINUOUS
100
AcDbLine
 10
25.734024
 20
0.790353
 30
0.0
 11
25.734024
 21
1.580706
 31
0.0
  0
LINE
  5
76
100
AcDbEntity
  8
ANNOTATIONS
  6
CONTINUOUS
100
AcDbLine
 10
23.601036
 20
0.790353
 30
0.0
 11
23.601036
 21
1.18553
 31
0.0
  0
LINE
  5
77
100
AcDbEntity
  8
ANNOTATIONS
  6
CONTINUOUS
100
AcDbLine
 10
21.468048
 20
0.790353
 30
0.0
 11
21.468048
 21
1.580706
 31
0.0
  0
LINE
  5
78
100
AcDbEntity
  8
ANNOTATIONS
  6
CONTINUOUS
100
AcDbLine
 10
19.33506
 20
0.790353
 30
0.0
 11
19.33506
 21
1.18553
 31
0.0
  0
MTEXT
  5
79
100
AcDbEntity
  8
ANNOTATIONS
100
AcDbMText
 10
8.601036
 20
3.951765
 30
0.0
 40
3.082006
 41
17.202072
 71
     5
 72
     5
  1
\C7;\fArial|b0|i0|;\H3.0820059355348;30 mm
  0
LWPOLYLINE
  5
7A
102
{ACAD_REACTORS
330
7B
102
}
100
AcDbEntity
  8
ANNOTATIONS
  6
CONTINUOUS
100
AcDbPolyline
 90
        4
 70
     1
 10
17.202072
 20
0.790353
 10
30.0
 20
0.790353
 10
30.0
 20
1.580706
 10
17.202072
 20
1.580706
  0
HATCH
  5
7B
100
AcDbEntity
  8
ANNOTATIONS
 62
     2
100
AcDbHatch
 10
0.0
 20
0.0
 30
0.0
210
0.0
220
0.0
230
1.0
  2
SOLID
 70
     1
 71
     1
 91
        1
 92
        3
 72
     0
 73
     1
 93
        4
 10
17.202071959536283
 20
0.7903530979546442
 10
29.999999999999989
 20
0.7903530979546442
 10
29.999999999999989
 20
1.5807061959092883
 10
17.202071959536283
 20
1.5807061959092883
 97
        1
330
7A
 75
     0
 76
     1
 98
        0
  0
ENDBLK
  5
7C
100
AcDbEntity
  8
0
100
AcDbBlockEnd
  0
BLOCK
  5
7E
100
AcDbEntity
  8
0
100
AcDbBlockBegin
  2
COIN_CHANFREIN\U+00E9
 70
     0
 10
0.0
 20
0.0
 30
0.0
  3
COIN_CHANFREIN\U+00E9
  1

  0
LWPOLYLINE
  5
7F
100
AcDbEntity
  8
0
  6
CONTINUOUS
 62
     7
100
AcDbPolyline
 90
        4
 70
     0
 10
37.5
 20
62.5
 10
37.5
 20
42.5
 10
42.5
 20
37.5
 10
62.5
 20
37.5
  0
ENDBLK
  5
80
100
AcDbEntity
  8
0
100
AcDbBlockEnd
  0
BLOCK
  5
82
100
AcDbEntity
  8
0
100
AcDbBlockBegin
  2
SEGMENT_LONGUEUR_VARIABLE
 70
     2
 10
0.0
 20
0.0
 30
0.0
  3
SEGMENT_LONGUEUR_VARIABLE
  1

  0
LINE
  5
83
100
AcDbEntity
  8
0
  6
CONTINUOUS
 62
     7
100
AcDbLine
 10
32.5
 20
52.54
 30
0.0
 11
67.5
 21
52.54
 31
0.0
  0
ENDBLK
  5
84
100
AcDbEntity
  8
0
100
AcDbBlockEnd
  0
BLOCK
  5
86
100
AcDbEntity
  8
0
100
AcDbBlockBegin
  2
TRGLE_REC___2_C\U+00F4T\5
 70
     0
 10
0.0
 20
0.0
 30
0.0
  3
TRGLE_REC___2_C\U+00F4T\5
  1

  0
LWPOLYLINE
  5
87
100
AcDbEntity
  8
0
  6
CONTINUOUS
 62
     7
100
AcDbPolyline
 90
        3
 70
     1
 10
37.5
 20
65.04
 10
37.5
 20
52.54
 10
62.5
 20
52.54
  0
ENDBLK
  5
88
100
AcDbEntity
  8
0
100
AcDbBlockEnd
  0
BLOCK
  5
8A
100
AcDbEntity
  8
0
100
AcDbBlockBegin
  2
ANGLE_PERPENDICULAIRE
 70
     0
 10
0.0
 20
0.0
 30
0.0
  3
ANGLE_PERPENDICULAIRE
  1

  0
LWPOLYLINE
  5
8B
100
AcDbEntity
  8
0
  6
CONTINUOUS
 62
     7
100
AcDbPolyline
 90
        3
 70
     0
 10
47.5
 20
50.0
 10
35.0
 20
50.0
 10
35.0
 20
62.5
  0
LWPOLYLINE
  5
8C
100
AcDbEntity
  8
0
  6
CONTINUOUS
 62
     7
100
AcDbPolyline
 90
        3
 70
     0
 10
35.0
 20
52.0
 10
37.0
 20
52.0
 10
37.0
 20
50.0
  0
ENDBLK
  5
8D
100
AcDbEntity
  8
0
100
AcDbBlockEnd
  0
BLOCK
  5
8F
100
AcDbEntity
  8
0
100
AcDbBlockBegin
  2
L\U+00E9GENDE_ENCADR\U+07
 70
     0
 10
0.0
 20
0.0
 30
0.0
  3
L\U+00E9GENDE_ENCADR\U+07
  1

  0
LINE
  5
91
100
AcDbEntity
  8
MESURE
  6
CONTINUOUS
100
AcDbLine
 10
60.0
 20
60.0
 30
0.0
 11
40.0
 21
40.0
 31
0.0
  0
LWPOLYLINE
  5
92
100
AcDbEntity
  8
MESURE
  6
CONTINUOUS
100
AcDbPolyline
 90
        4
 70
     1
 10
50.0
 20
55.0
 10
70.0
 20
55.0
 10
70.0
 20
65.0
 10
50.0
 20
65.0
  0
ENDBLK
  5
93
100
AcDbEntity
  8
0
100
AcDbBlockEnd
  0
BLOCK
  5
95
100
AcDbEntity
  8
0
100
AcDbBlockBegin
  2
TEXTE_12_PT
 70
     0
 10
0.0
 20
0.0
 30
0.0
  3
TEXTE_12_PT
  1

  0
MTEXT
  5
96
100
AcDbEntity
  8
MESURE
100
AcDbMText
 10
51.25
 20
50.0
 30
0.0
 40
3.082006
 41
12.5
 71
     5
 72
     5
  1
\C7;\fArial|b0|i0|;\H3.0820059355348;Texte
  0
ENDBLK
  5
97
100
AcDbEntity
  8
0
100
AcDbBlockEnd
  0
ENDSEC
  0
SECTION
  2
ENTITIES
  0
LWPOLYLINE
  5
31
102
{ACAD_REACTORS
330
71
102
}
100
AcDbEntity
  8
0
  6
CONTINUOUS
 62
     7
100
AcDbPolyline
 90
        4
 70
     1
 10
50.0
 20
50.0
 10
650.0
 20
50.0
 10
650.0
 20
450.0
 10
50.0
 20
450.0
  0
LWPOLYLINE
  5
32
102
{ACAD_REACTORS
330
71
102
}
100
AcDbEntity
  8
0
  6
CONTINUOUS
 62
     7
100
AcDbPolyline
 90
        2
 70
     1
 10
350.0
 20
402.5
 42
-1.0
 10
405.0
 20
402.5
 42
-1.0
  0
LWPOLYLINE
  5
33
102
{ACAD_REACTORS
330
71
102
}
100
AcDbEntity
  8
0
  6
CONTINUOUS
 62
     7
100
AcDbPolyline
 90
        2
 70
     1
 10
575.0
 20
402.5
 42
-1.0
 10
630.0
 20
402.5
 42
-1.0
  0
LWPOLYLINE
  5
34
102
{ACAD_REACTORS
330
71
102
}
100
AcDbEntity
  8
0
  6
CONTINUOUS
 62
     7
100
AcDbPolyline
 90
        2
 70
     1
 10
500.0
 20
402.5
 42
-1.0
 10
555.0
 20
402.5
 42
-1.0
  0
LWPOLYLINE
  5
35
102
{ACAD_REACTORS
330
71
102
}
100
AcDbEntity
  8
0
  6
CONTINUOUS
 62
     7
100
AcDbPolyline
 90
        2
 70
     1
 10
425.0
 20
402.5
 42
-1.0
 10
480.0
 20
402.5
 42
-1.0
  0
LWPOLYLINE
  5
36
102
{ACAD_REACTORS
330
71
102
}
100
AcDbEntity
  8
0
  6
CONTINUOUS
 62
     7
100
AcDbPolyline
 90
        2
 70
     1
 10
275.0
 20
402.5
 42
-1.0
 10
330.0
 20
402.5
 42
-1.0
  0
LWPOLYLINE
  5
37
102
{ACAD_REACTORS
330
71
102
}
100
AcDbEntity
  8
0
  6
CONTINUOUS
 62
     7
100
AcDbPolyline
 90
        2
 70
     1
 10
200.0
 20
402.5
 42
-1.0
 10
255.0
 20
402.5
 42
-1.0
  0
LWPOLYLINE
  5
38
102
{ACAD_REACTORS
330
71
102
}
100
AcDbEntity
  8
0
  6
CONTINUOUS
 62
     7
100
AcDbPolyline
 90
        2
 70
     1
 10
125.0
 20
402.5
 42
-1.0
 10
180.0
 20
402.5
 42
-1.0
  0
MTEXT
  5
39
100
AcDbEntity
  8
0
100
AcDbMText
 10
152.5
 20
402.5
 30
0.0
 40
9.245947
 41
55.0
 71
     5
 72
     5
  1
\C7;\fArial|b0|i0|;\H9.245947265625;55 
  0
LWPOLYLINE
  5
3B
102
{ACAD_REACTORS
330
3A
102
}
100
AcDbEntity
  8
0
  6
CONTINUOUS
 62
     7
100
AcDbPolyline
 90
        2
 70
     1
 10
350.0
 20
327.5
 42
-1.0
 10
405.0
 20
327.5
 42
-1.0
  0
LWPOLYLINE
  5
3C
102
{ACAD_REACTORS
330
3A
102
}
100
AcDbEntity
  8
0
  6
CONTINUOUS
 62
     7
100
AcDbPolyline
 90
        2
 70
     1
 10
575.0
 20
327.5
 42
-1.0
 10
630.0
 20
327.5
 42
-1.0
  0
LWPOLYLINE
  5
3D
102
{ACAD_REACTORS
330
3A
102
}
100
AcDbEntity
  8
0
  6
CONTINUOUS
 62
     7
100
AcDbPolyline
 90
        2
 70
     1
 10
500.0
 20
327.5
 42
-1.0
 10
555.0
 20
327.5
 42
-1.0
  0
LWPOLYLINE
  5
3E
102
{ACAD_REACTORS
330
3A
102
}
100
AcDbEntity
  8
0
  6
CONTINUOUS
 62
     7
100
AcDbPolyline
 90
        2
 70
     1
 10
425.0
 20
327.5
 42
-1.0
 10
480.0
 20
327.5
 42
-1.0
  0
LWPOLYLINE
  5
3F
102
{ACAD_REACTORS
330
3A
102
}
100
AcDbEntity
  8
0
  6
CONTINUOUS
 62
     7
100
AcDbPolyline
 90
        2
 70
     1
 10
275.0
 20
327.5
 42
-1.0
 10
330.0
 20
327.5
 42
-1.0
  0
LWPOLYLINE
  5
40
102
{ACAD_REACTORS
330
3A
102
}
100
AcDbEntity
  8
0
  6
CONTINUOUS
 62
     7
100
AcDbPolyline
 90
        2
 70
     1
 10
200.0
 20
327.5
 42
-1.0
 10
255.0
 20
327.5
 42
-1.0
  0
LWPOLYLINE
  5
41
102
{ACAD_REACTORS
330
3A
102
}
100
AcDbEntity
  8
0
  6
CONTINUOUS
 62
     7
100
AcDbPolyline
 90
        2
 70
     1
 10
125.0
 20
327.5
 42
-1.0
 10
180.0
 20
327.5
 42
-1.0
  0
LWPOLYLINE
  5
43
102
{ACAD_REACTORS
330
42
102
}
100
AcDbEntity
  8
0
  6
CONTINUOUS
 62
     7
100
AcDbPolyline
 90
        2
 70
     1
 10
350.0
 20
252.5
 42
-1.0
 10
405.0
 20
252.5
 42
-1.0
  0
LWPOLYLINE
  5
44
102
{ACAD_REACTORS
330
42
102
}
100
AcDbEntity
  8
0
  6
CONTINUOUS
 62
     7
100
AcDbPolyline
 90
        2
 70
     1
 10
575.0
 20
252.5
 42
-1.0
 10
630.0
 20
252.5
 42
-1.0
  0
LWPOLYLINE
  5
45
102
{ACAD_REACTORS
330
42
102
}
100
AcDbEntity
  8
0
  6
CONTINUOUS
 62
     7
100
AcDbPolyline
 90
        2
 70
     1
 10
500.0
 20
252.5
 42
-1.0
 10
555.0
 20
252.5
 42
-1.0
  0
LWPOLYLINE
  5
46
102
{ACAD_REACTORS
330
42
102
}
100
AcDbEntity
  8
0
  6
CONTINUOUS
 62
     7
100
AcDbPolyline
 90
        2
 70
     1
 10
425.0
 20
252.5
 42
-1.0
 10
480.0
 20
252.5
 42
-1.0
  0
LWPOLYLINE
  5
47
102
{ACAD_REACTORS
330
42
102
}
100
AcDbEntity
  8
0
  6
CONTINUOUS
 62
     7
100
AcDbPolyline
 90
        2
 70
     1
 10
275.0
 20
252.5
 42
-1.0
 10
330.0
 20
252.5
 42
-1.0
  0
LWPOLYLINE
  5
48
102
{ACAD_REACTORS
330
42
102
}
100
AcDbEntity
  8
0
  6
CONTINUOUS
 62
     7
100
AcDbPolyline
 90
        2
 70
     1
 10
200.0
 20
252.5
 42
-1.0
 10
255.0
 20
252.5
 42
-1.0
  0
LWPOLYLINE
  5
49
102
{ACAD_REACTORS
330
42
102
}
100
AcDbEntity
  8
0
  6
CONTINUOUS
 62
     7
100
AcDbPolyline
 90
        2
 70
     1
 10
125.0
 20
252.5
 42
-1.0
 10
180.0
 20
252.5
 42
-1.0
  0
LWPOLYLINE
  5
4B
102
{ACAD_REACTORS
330
4A
102
}
100
AcDbEntity
  8
0
  6
CONTINUOUS
 62
     7
100
AcDbPolyline
 90
        2
 70
     1
 10
350.0
 20
175.0
 42
-1.0
 10
405.0
 20
175.0
 42
-1.0
  0
LWPOLYLINE
  5
4C
102
{ACAD_REACTORS
330
4A
102
}
100
AcDbEntity
  8
0
  6
CONTINUOUS
 62
     7
100
AcDbPolyline
 90
        2
 70
     1
 10
575.0
 20
175.0
 42
-1.0
 10
630.0
 20
175.0
 42
-1.0
  0
LWPOLYLINE
  5
4D
102
{ACAD_REACTORS
330
4A
102
}
100
AcDbEntity
  8
0
  6
CONTINUOUS
 62
     7
100
AcDbPolyline
 90
        2
 70
     1
 10
500.0
 20
175.0
 42
-1.0
 10
555.0
 20
175.0
 42
-1.0
  0
LWPOLYLINE
  5
4E
102
{ACAD_REACTORS
330
4A
102
}
100
AcDbEntity
  8
0
  6
CONTINUOUS
 62
     7
100
AcDbPolyline
 90
        2
 70
     1
 10
425.0
 20
175.0
 42
-1.0
 10
480.0
 20
175.0
 42
-1.0
  0
LWPOLYLINE
  5
4F
102
{ACAD_REACTORS
330
4A
102
}
100
AcDbEntity
  8
0
  6
CONTINUOUS
 62
     7
100
AcDbPolyline
 90
        2
 70
     1
 10
275.0
 20
175.0
 42
-1.0
 10
330.0
 20
175.0
 42
-1.0
  0
LWPOLYLINE
  5
50
102
{ACAD_REACTORS
330
4A
102
}
100
AcDbEntity
  8
0
  6
CONTINUOUS
 62
     7
100
AcDbPolyline
 90
        2
 70
     1
 10
200.0
 20
175.0
 42
-1.0
 10
255.0
 20
175.0
 42
-1.0
  0
LWPOLYLINE
  5
51
102
{ACAD_REACTORS
330
4A
102
}
100
AcDbEntity
  8
0
  6
CONTINUOUS
 62
     7
100
AcDbPolyline
 90
        2
 70
     1
 10
125.0
 20
175.0
 42
-1.0
 10
180.0
 20
175.0
 42
-1.0
  0
LWPOLYLINE
  5
53
102
{ACAD_REACTORS
330
52
102
}
100
AcDbEntity
  8
0
  6
CONTINUOUS
 62
     7
100
AcDbPolyline
 90
        2
 70
     1
 10
350.0
 20
97.5
 42
-1.0
 10
405.0
 20
97.5
 42
-1.0
  0
LWPOLYLINE
  5
54
102
{ACAD_REACTORS
330
52
102
}
100
AcDbEntity
  8
0
  6
CONTINUOUS
 62
     7
100
AcDbPolyline
 90
        2
 70
     1
 10
575.0
 20
97.5
 42
-1.0
 10
630.0
 20
97.5
 42
-1.0
  0
LWPOLYLINE
  5
55
102
{ACAD_REACTORS
330
52
102
}
100
AcDbEntity
  8
0
  6
CONTINUOUS
 62
     7
100
AcDbPolyline
 90
        2
 70
     1
 10
500.0
 20
97.5
 42
-1.0
 10
555.0
 20
97.5
 42
-1.0
  0
LWPOLYLINE
  5
56
102
{ACAD_REACTORS
330
52
102
}
100
AcDbEntity
  8
0
  6
CONTINUOUS
 62
     7
100
AcDbPolyline
 90
        2
 70
     1
 10
425.0
 20
97.5
 42
-1.0
 10
480.0
 20
97.5
 42
-1.0
  0
LWPOLYLINE
  5
57
102
{ACAD_REACTORS
330
52
102
}
100
AcDbEntity
  8
0
  6
CONTINUOUS
 62
     7
100
AcDbPolyline
 90
        2
 70
     1
 10
275.0
 20
97.5
 42
-1.0
 10
330.0
 20
97.5
 42
-1.0
  0
LWPOLYLINE
  5
58
102
{ACAD_REACTORS
330
52
102
}
100
AcDbEntity
  8
0
  6
CONTINUOUS
 62
     7
100
AcDbPolyline
 90
        2
 70
     1
 10
200.0
 20
97.5
 42
-1.0
 10
255.0
 20
97.5
 42
-1.0
  0
LWPOLYLINE
  5
59
102
{ACAD_REACTORS
330
52
102
}
100
AcDbEntity
  8
0
  6
CONTINUOUS
 62
     7
100
AcDbPolyline
 90
        2
 70
     1
 10
125.0
 20
97.5
 42
-1.0
 10
180.0
 20
97.5
 42
-1.0
  0
LWPOLYLINE
  5
5A
102
{ACAD_REACTORS
330
71
102
}
100
AcDbEntity
  8
0
  6
CONTINUOUS
 62
     7
100
AcDbPolyline
 90
        4
 70
     1
 10
89.999965
 20
425.000011
 10
119.999965
 20
425.000011
 10
119.999965
 20
450.000011
 10
89.999965
 20
450.000011
  0
MTEXT
  5
5B
100
AcDbEntity
  8
0
100
AcDbMText
 10
104.999965
 20
437.500011
 30
0.0
 40
6.163941
 41
30.0
 71
     5
 72
     5
  1
\C7;\fArial|b0|i0|;\H6.1639413300902;C\P30x25
  0
LINE
  5
5C
100
AcDbEntity
  8
0
  6
CONTINUOUS
 62
     7
100
AcDbLine
 10
626.464466
 20
453.535534
 30
0.0
 11
653.535534
 21
426.464466
 31
0.0
  0
LINE
  5
5D
100
AcDbEntity
  8
0
  6
CONTINUOUS
 62
     7
100
AcDbLine
 10
653.535534
 20
73.535534
 30
0.0
 11
626.464466
 21
46.464466
 31
0.0
  0
MTEXT
  5
5E
100
AcDbEntity
  8
0
100
AcDbMText
 10
660.0
 20
462.5
 30
0.0
 40
6.163941
 41
42.5
 71
     5
 72
     5
  1
\C7;\fArial|b0|i0|;\H6.1639413300902;Coupe \Pangle \U+00E0 45
  0
MTEXT
  5
5F
100
AcDbEntity
  8
0
100
AcDbMText
 10
660.0
 20
50.0
 30
0.0
 40
6.163941
 41
42.5
 71
     5
 72
     5
  1
\C7;\fArial|b0|i0|;\H6.1639413300902;Coupe \Pangle \U+00E0 45
  0
MTEXT
  5
60
100
AcDbEntity
  8
0
100
AcDbMText
 10
160.0
 20
471.0
 30
0.0
 40
4.622974
 41
374.0
 71
     4
 72
     5
  3
\C7;\fArial|b0|i0|;\H4.6229736328125;Dimension plaque en aluminium : 600 x 400 mm x 2mm\PDiam\U+00E8tre d\U+00E9coupe ronde : 55 mm, espace entre chaque d\U+00E9coupe : 20 mm\PDeux angles coup\U+00E9s a 45\PDeux d\U+00E9coupes rectangulaires avant li
  1
gne de pliage \U+00A9 Pliage \U+00E0 90\U+00B0
  0
LINE
  5
61
100
AcDbEntity
  8
0
  6
CONTINUOUS
 62
     7
100
AcDbLine
 10
89.999983
 20
455.000011
 30
0.0
 11
89.999983
 21
45.0
 31
0.0
  0
LWPOLYLINE
  5
62
102
{ACAD_REACTORS
330
71
102
}
100
AcDbEntity
  8
0
  6
CONTINUOUS
 62
     7
100
AcDbPolyline
 90
        4
 70
     1
 10
90.0
 20
50.0
 10
120.0
 20
50.0
 10
120.0
 20
75.0
 10
90.0
 20
75.0
  0
MTEXT
  5
63
100
AcDbEntity
  8
0
100
AcDbMText
 10
105.0
 20
62.5
 30
0.0
 40
6.163941
 41
30.0
 71
     5
 72
     5
  1
\C7;\fArial|b0|i0|;\H6.1639413300902;C\P30x25
  0
MTEXT
  5
64
100
AcDbEntity
  8
0
100
AcDbMText
 10
72.5
 20
230.0
 30
0.0
 40
12.327953
 41
112.5
 71
     5
 72
     5
  1
\C7;\fArial|b0|i0|;\H12.32795320116;PLIAGE \U+00E0 90\U+00B0
 11
0.0
 21
1.0
 31
0.0
  0
ENDSEC
  0
SECTION
  2
OBJECTS
  0
DICTIONARY
  5
C
100
AcDbDictionary
  3
ACAD_GROUP
350
D
  3
ACAD_MLINESTYLE
350
1B
  0
DICTIONARY
  5
D
102
{ACAD_REACTORS
330
C
102
}
100
AcDbDictionary
  3
VISIOGROUP_0
350
3A
  3
VISIOGROUP_1
350
42
  3
VISIOGROUP_2
350
4A
  3
VISIOGROUP_3
350
52
  0
DICTIONARY
  5
1B
102
{ACAD_REACTORS
330
C
102
}
100
AcDbDictionary
  3
STANDARD
350
1C
  0
MLINESTYLE
  5
1C
102
{ACAD_REACTORS
330
1B
102
}
100
AcDbMlineStyle
  2
STANDARD
 70
     0
  3

 62
   256
 51
90.0
 52
90.0
 71
     2
 49
0.5
 62
   256
  6
BYLAYER
 49
-0.5
 62
   256
  6
BYLAYER
  0
GROUP
  5
3A
102
{ACAD_REACTORS
330
D
102
}
100
AcDbGroup
300
Group created by Visio.
 70
     0
 71
     1
340
3B
340
3C
340
3D
340
3E
340
3F
340
40
340
41
  0
GROUP
  5
42
102
{ACAD_REACTORS
330
D
102
}
100
AcDbGroup
300
Group created by Visio.
 70
     0
 71
     1
340
43
340
44
340
45
340
46
340
47
340
48
340
49
  0
GROUP
  5
4A
102
{ACAD_REACTORS
330
D
102
}
100
AcDbGroup
300
Group created by Visio.
 70
     0
 71
     1
340
4B
340
4C
340
4D
340
4E
340
4F
340
50
340
51
  0
GROUP
  5
52
102
{ACAD_REACTORS
330
D
102
}
100
AcDbGroup
300
Group created by Visio.
 70
     0
 71
     1
340
53
340
54
340
55
340
56
340
57
340
58
340
59
  0
ENDSEC
  0
EOF
