ISO-10303-21;
HEADER;
/* Generated by software containing ST-Developer
 * from STEP Tools, Inc. (www.steptools.com) 
 */

FILE_DESCRIPTION(
/* description */ (''),
/* implementation_level */ '2;1');

FILE_NAME(
/* name */ 
'C:/Users/AntoninVIAUD/Downloads/AdaptateurFixation_Arriere v2.step',
/* time_stamp */ '2020-08-07T19:26:15+02:00',
/* author */ (''),
/* organization */ (''),
/* preprocessor_version */ 'ST-DEVELOPER v18.1',
/* originating_system */ 'Autodesk Translation Framework v9.3.0.1241',
/* authorisation */ '');

FILE_SCHEMA (('AUTOMOTIVE_DESIGN { 1 0 10303 214 3 1 1 }'));
ENDSEC;

DATA;
#10=MECHANICAL_DESIGN_GEOMETRIC_PRESENTATION_REPRESENTATION('',(#13),#406);
#11=SHAPE_REPRESENTATION_RELATIONSHIP('SRR','None',#413,#12);
#12=ADVANCED_BREP_SHAPE_REPRESENTATION('',(#14),#405);
#13=STYLED_ITEM('',(#423),#14);
#14=MANIFOLD_SOLID_BREP('Corps1',#221);
#15=PLANE('',#246);
#16=PLANE('',#247);
#17=PLANE('',#248);
#18=PLANE('',#249);
#19=PLANE('',#250);
#20=PLANE('',#251);
#21=PLANE('',#252);
#22=FACE_BOUND('',#43,.T.);
#23=FACE_BOUND('',#45,.T.);
#24=FACE_BOUND('',#48,.T.);
#25=FACE_BOUND('',#49,.T.);
#26=FACE_BOUND('',#50,.T.);
#27=FACE_BOUND('',#53,.T.);
#28=FACE_OUTER_BOUND('',#39,.T.);
#29=FACE_OUTER_BOUND('',#40,.T.);
#30=FACE_OUTER_BOUND('',#41,.T.);
#31=FACE_OUTER_BOUND('',#42,.T.);
#32=FACE_OUTER_BOUND('',#44,.T.);
#33=FACE_OUTER_BOUND('',#46,.T.);
#34=FACE_OUTER_BOUND('',#47,.T.);
#35=FACE_OUTER_BOUND('',#51,.T.);
#36=FACE_OUTER_BOUND('',#52,.T.);
#37=FACE_OUTER_BOUND('',#54,.T.);
#38=FACE_OUTER_BOUND('',#55,.T.);
#39=EDGE_LOOP('',(#150,#151,#152,#153,#154));
#40=EDGE_LOOP('',(#155,#156,#157,#158));
#41=EDGE_LOOP('',(#159,#160,#161,#162));
#42=EDGE_LOOP('',(#163,#164,#165,#166));
#43=EDGE_LOOP('',(#167,#168));
#44=EDGE_LOOP('',(#169,#170,#171,#172));
#45=EDGE_LOOP('',(#173));
#46=EDGE_LOOP('',(#174,#175,#176,#177));
#47=EDGE_LOOP('',(#178,#179,#180,#181));
#48=EDGE_LOOP('',(#182));
#49=EDGE_LOOP('',(#183));
#50=EDGE_LOOP('',(#184));
#51=EDGE_LOOP('',(#185,#186,#187,#188));
#52=EDGE_LOOP('',(#189,#190,#191,#192));
#53=EDGE_LOOP('',(#193));
#54=EDGE_LOOP('',(#194,#195,#196,#197,#198,#199));
#55=EDGE_LOOP('',(#200,#201,#202,#203,#204,#205));
#56=B_SPLINE_CURVE_WITH_KNOTS('',3,(#317,#318,#319,#320,#321,#322,#323,
#324,#325,#326,#327,#328,#329,#330,#331,#332,#333,#334,#335,#336,#337,#338,
#339,#340,#341,#342),.UNSPECIFIED.,.F.,.F.,(4,2,2,2,2,2,2,2,2,2,2,2,4),
(0.,0.127918305094912,0.255836610189824,0.383752186907565,0.511667763625307,
0.639583340343048,0.76749891706079,0.895417222155701,1.02333552725061,1.15125383234553,
1.27917213744044,1.40708771415818,1.53500329087592),.UNSPECIFIED.);
#57=B_SPLINE_CURVE_WITH_KNOTS('',3,(#343,#344,#345,#346,#347,#348,#349,
#350,#351,#352),.UNSPECIFIED.,.F.,.F.,(4,2,2,2,4),(1.53500329087592,1.66291886759366,
1.7908344443114,1.91875274940631,2.04667105450123),.UNSPECIFIED.);
#58=LINE('',#315,#77);
#59=LINE('',#357,#78);
#60=LINE('',#363,#79);
#61=LINE('',#370,#80);
#62=LINE('',#373,#81);
#63=LINE('',#376,#82);
#64=LINE('',#378,#83);
#65=LINE('',#379,#84);
#66=LINE('',#382,#85);
#67=LINE('',#384,#86);
#68=LINE('',#385,#87);
#69=LINE('',#388,#88);
#70=LINE('',#390,#89);
#71=LINE('',#391,#90);
#72=LINE('',#394,#91);
#73=LINE('',#396,#92);
#74=LINE('',#397,#93);
#75=LINE('',#399,#94);
#76=LINE('',#400,#95);
#77=VECTOR('',#259,3.39);
#78=VECTOR('',#264,3.39);
#79=VECTOR('',#271,3.39);
#80=VECTOR('',#278,10.);
#81=VECTOR('',#281,10.);
#82=VECTOR('',#284,10.);
#83=VECTOR('',#285,10.);
#84=VECTOR('',#286,10.);
#85=VECTOR('',#289,10.);
#86=VECTOR('',#290,10.);
#87=VECTOR('',#291,10.);
#88=VECTOR('',#294,10.);
#89=VECTOR('',#295,10.);
#90=VECTOR('',#296,10.);
#91=VECTOR('',#299,10.);
#92=VECTOR('',#300,10.);
#93=VECTOR('',#301,10.);
#94=VECTOR('',#304,10.);
#95=VECTOR('',#305,10.);
#96=CIRCLE('',#236,3.38975);
#97=CIRCLE('',#238,3.38975);
#98=CIRCLE('',#239,3.38975);
#99=CIRCLE('',#241,3.38975);
#100=CIRCLE('',#242,3.38975);
#101=CIRCLE('',#244,21.5);
#102=CIRCLE('',#245,21.5);
#103=VERTEX_POINT('',#312);
#104=VERTEX_POINT('',#314);
#105=VERTEX_POINT('',#316);
#106=VERTEX_POINT('',#354);
#107=VERTEX_POINT('',#356);
#108=VERTEX_POINT('',#360);
#109=VERTEX_POINT('',#362);
#110=VERTEX_POINT('',#366);
#111=VERTEX_POINT('',#367);
#112=VERTEX_POINT('',#369);
#113=VERTEX_POINT('',#371);
#114=VERTEX_POINT('',#375);
#115=VERTEX_POINT('',#377);
#116=VERTEX_POINT('',#381);
#117=VERTEX_POINT('',#383);
#118=VERTEX_POINT('',#387);
#119=VERTEX_POINT('',#389);
#120=VERTEX_POINT('',#393);
#121=VERTEX_POINT('',#395);
#122=EDGE_CURVE('',#103,#103,#96,.T.);
#123=EDGE_CURVE('',#103,#104,#58,.T.);
#124=EDGE_CURVE('',#105,#104,#56,.T.);
#125=EDGE_CURVE('',#104,#105,#57,.T.);
#126=EDGE_CURVE('',#106,#106,#97,.T.);
#127=EDGE_CURVE('',#106,#107,#59,.T.);
#128=EDGE_CURVE('',#107,#107,#98,.T.);
#129=EDGE_CURVE('',#108,#108,#99,.T.);
#130=EDGE_CURVE('',#108,#109,#60,.T.);
#131=EDGE_CURVE('',#109,#109,#100,.T.);
#132=EDGE_CURVE('',#110,#111,#101,.T.);
#133=EDGE_CURVE('',#110,#112,#61,.T.);
#134=EDGE_CURVE('',#113,#112,#102,.T.);
#135=EDGE_CURVE('',#111,#113,#62,.T.);
#136=EDGE_CURVE('',#114,#111,#63,.T.);
#137=EDGE_CURVE('',#115,#113,#64,.T.);
#138=EDGE_CURVE('',#114,#115,#65,.T.);
#139=EDGE_CURVE('',#116,#114,#66,.T.);
#140=EDGE_CURVE('',#117,#115,#67,.T.);
#141=EDGE_CURVE('',#116,#117,#68,.T.);
#142=EDGE_CURVE('',#118,#116,#69,.T.);
#143=EDGE_CURVE('',#119,#117,#70,.T.);
#144=EDGE_CURVE('',#118,#119,#71,.T.);
#145=EDGE_CURVE('',#120,#118,#72,.T.);
#146=EDGE_CURVE('',#121,#119,#73,.T.);
#147=EDGE_CURVE('',#120,#121,#74,.T.);
#148=EDGE_CURVE('',#110,#120,#75,.T.);
#149=EDGE_CURVE('',#112,#121,#76,.T.);
#150=ORIENTED_EDGE('',*,*,#122,.F.);
#151=ORIENTED_EDGE('',*,*,#123,.T.);
#152=ORIENTED_EDGE('',*,*,#124,.F.);
#153=ORIENTED_EDGE('',*,*,#125,.F.);
#154=ORIENTED_EDGE('',*,*,#123,.F.);
#155=ORIENTED_EDGE('',*,*,#126,.F.);
#156=ORIENTED_EDGE('',*,*,#127,.T.);
#157=ORIENTED_EDGE('',*,*,#128,.F.);
#158=ORIENTED_EDGE('',*,*,#127,.F.);
#159=ORIENTED_EDGE('',*,*,#129,.F.);
#160=ORIENTED_EDGE('',*,*,#130,.T.);
#161=ORIENTED_EDGE('',*,*,#131,.F.);
#162=ORIENTED_EDGE('',*,*,#130,.F.);
#163=ORIENTED_EDGE('',*,*,#132,.F.);
#164=ORIENTED_EDGE('',*,*,#133,.T.);
#165=ORIENTED_EDGE('',*,*,#134,.F.);
#166=ORIENTED_EDGE('',*,*,#135,.F.);
#167=ORIENTED_EDGE('',*,*,#124,.T.);
#168=ORIENTED_EDGE('',*,*,#125,.T.);
#169=ORIENTED_EDGE('',*,*,#136,.T.);
#170=ORIENTED_EDGE('',*,*,#135,.T.);
#171=ORIENTED_EDGE('',*,*,#137,.F.);
#172=ORIENTED_EDGE('',*,*,#138,.F.);
#173=ORIENTED_EDGE('',*,*,#128,.T.);
#174=ORIENTED_EDGE('',*,*,#139,.T.);
#175=ORIENTED_EDGE('',*,*,#138,.T.);
#176=ORIENTED_EDGE('',*,*,#140,.F.);
#177=ORIENTED_EDGE('',*,*,#141,.F.);
#178=ORIENTED_EDGE('',*,*,#142,.T.);
#179=ORIENTED_EDGE('',*,*,#141,.T.);
#180=ORIENTED_EDGE('',*,*,#143,.F.);
#181=ORIENTED_EDGE('',*,*,#144,.F.);
#182=ORIENTED_EDGE('',*,*,#122,.T.);
#183=ORIENTED_EDGE('',*,*,#126,.T.);
#184=ORIENTED_EDGE('',*,*,#129,.T.);
#185=ORIENTED_EDGE('',*,*,#145,.T.);
#186=ORIENTED_EDGE('',*,*,#144,.T.);
#187=ORIENTED_EDGE('',*,*,#146,.F.);
#188=ORIENTED_EDGE('',*,*,#147,.F.);
#189=ORIENTED_EDGE('',*,*,#148,.T.);
#190=ORIENTED_EDGE('',*,*,#147,.T.);
#191=ORIENTED_EDGE('',*,*,#149,.F.);
#192=ORIENTED_EDGE('',*,*,#133,.F.);
#193=ORIENTED_EDGE('',*,*,#131,.T.);
#194=ORIENTED_EDGE('',*,*,#149,.T.);
#195=ORIENTED_EDGE('',*,*,#146,.T.);
#196=ORIENTED_EDGE('',*,*,#143,.T.);
#197=ORIENTED_EDGE('',*,*,#140,.T.);
#198=ORIENTED_EDGE('',*,*,#137,.T.);
#199=ORIENTED_EDGE('',*,*,#134,.T.);
#200=ORIENTED_EDGE('',*,*,#148,.F.);
#201=ORIENTED_EDGE('',*,*,#132,.T.);
#202=ORIENTED_EDGE('',*,*,#136,.F.);
#203=ORIENTED_EDGE('',*,*,#139,.F.);
#204=ORIENTED_EDGE('',*,*,#142,.F.);
#205=ORIENTED_EDGE('',*,*,#145,.F.);
#206=CYLINDRICAL_SURFACE('',#235,3.38975);
#207=CYLINDRICAL_SURFACE('',#237,3.38975);
#208=CYLINDRICAL_SURFACE('',#240,3.38975);
#209=CYLINDRICAL_SURFACE('',#243,21.5);
#210=ADVANCED_FACE('',(#28),#206,.F.);
#211=ADVANCED_FACE('',(#29),#207,.F.);
#212=ADVANCED_FACE('',(#30),#208,.F.);
#213=ADVANCED_FACE('',(#31,#22),#209,.F.);
#214=ADVANCED_FACE('',(#32,#23),#15,.T.);
#215=ADVANCED_FACE('',(#33),#16,.T.);
#216=ADVANCED_FACE('',(#34,#24,#25,#26),#17,.T.);
#217=ADVANCED_FACE('',(#35),#18,.T.);
#218=ADVANCED_FACE('',(#36,#27),#19,.T.);
#219=ADVANCED_FACE('',(#37),#20,.T.);
#220=ADVANCED_FACE('',(#38),#21,.F.);
#221=CLOSED_SHELL('',(#210,#211,#212,#213,#214,#215,#216,#217,#218,#219,
#220));
#222=DERIVED_UNIT_ELEMENT(#224,1.);
#223=DERIVED_UNIT_ELEMENT(#408,3.);
#224=(
MASS_UNIT()
NAMED_UNIT(*)
SI_UNIT(.KILO.,.GRAM.)
);
#225=DERIVED_UNIT((#222,#223));
#226=MEASURE_REPRESENTATION_ITEM('density measure',
POSITIVE_RATIO_MEASURE(7850.),#225);
#227=PROPERTY_DEFINITION_REPRESENTATION(#232,#229);
#228=PROPERTY_DEFINITION_REPRESENTATION(#233,#230);
#229=REPRESENTATION('material name',(#231),#405);
#230=REPRESENTATION('density',(#226),#405);
#231=DESCRIPTIVE_REPRESENTATION_ITEM('Acier','Acier');
#232=PROPERTY_DEFINITION('material property','material name',#415);
#233=PROPERTY_DEFINITION('material property','density of part',#415);
#234=AXIS2_PLACEMENT_3D('placement',#310,#253,#254);
#235=AXIS2_PLACEMENT_3D('',#311,#255,#256);
#236=AXIS2_PLACEMENT_3D('',#313,#257,#258);
#237=AXIS2_PLACEMENT_3D('',#353,#260,#261);
#238=AXIS2_PLACEMENT_3D('',#355,#262,#263);
#239=AXIS2_PLACEMENT_3D('',#358,#265,#266);
#240=AXIS2_PLACEMENT_3D('',#359,#267,#268);
#241=AXIS2_PLACEMENT_3D('',#361,#269,#270);
#242=AXIS2_PLACEMENT_3D('',#364,#272,#273);
#243=AXIS2_PLACEMENT_3D('',#365,#274,#275);
#244=AXIS2_PLACEMENT_3D('',#368,#276,#277);
#245=AXIS2_PLACEMENT_3D('',#372,#279,#280);
#246=AXIS2_PLACEMENT_3D('',#374,#282,#283);
#247=AXIS2_PLACEMENT_3D('',#380,#287,#288);
#248=AXIS2_PLACEMENT_3D('',#386,#292,#293);
#249=AXIS2_PLACEMENT_3D('',#392,#297,#298);
#250=AXIS2_PLACEMENT_3D('',#398,#302,#303);
#251=AXIS2_PLACEMENT_3D('',#401,#306,#307);
#252=AXIS2_PLACEMENT_3D('',#402,#308,#309);
#253=DIRECTION('axis',(0.,0.,1.));
#254=DIRECTION('refdir',(1.,0.,0.));
#255=DIRECTION('center_axis',(3.57273960697922E-33,1.,0.));
#256=DIRECTION('ref_axis',(0.,0.,-1.));
#257=DIRECTION('center_axis',(3.57273960697922E-33,1.,0.));
#258=DIRECTION('ref_axis',(0.,0.,-1.));
#259=DIRECTION('',(3.57273960697922E-33,1.,0.));
#260=DIRECTION('center_axis',(3.57273960697922E-33,1.,0.));
#261=DIRECTION('ref_axis',(0.,0.,-1.));
#262=DIRECTION('center_axis',(3.57273960697922E-33,1.,0.));
#263=DIRECTION('ref_axis',(0.,0.,-1.));
#264=DIRECTION('',(3.57273960697922E-33,1.,0.));
#265=DIRECTION('center_axis',(0.,-1.,0.));
#266=DIRECTION('ref_axis',(0.,0.,-1.));
#267=DIRECTION('center_axis',(3.57273960697922E-33,1.,0.));
#268=DIRECTION('ref_axis',(0.,0.,-1.));
#269=DIRECTION('center_axis',(3.57273960697922E-33,1.,0.));
#270=DIRECTION('ref_axis',(0.,0.,-1.));
#271=DIRECTION('',(3.57273960697922E-33,1.,0.));
#272=DIRECTION('center_axis',(0.,-1.,0.));
#273=DIRECTION('ref_axis',(0.,0.,-1.));
#274=DIRECTION('center_axis',(0.,0.,1.));
#275=DIRECTION('ref_axis',(1.,0.,0.));
#276=DIRECTION('center_axis',(0.,0.,1.));
#277=DIRECTION('ref_axis',(1.,0.,0.));
#278=DIRECTION('',(0.,0.,1.));
#279=DIRECTION('center_axis',(0.,0.,-1.));
#280=DIRECTION('ref_axis',(1.,0.,0.));
#281=DIRECTION('',(0.,0.,1.));
#282=DIRECTION('center_axis',(0.,1.,0.));
#283=DIRECTION('ref_axis',(-1.,0.,0.));
#284=DIRECTION('',(-1.,0.,0.));
#285=DIRECTION('',(-1.,0.,0.));
#286=DIRECTION('',(0.,0.,1.));
#287=DIRECTION('center_axis',(1.,0.,0.));
#288=DIRECTION('ref_axis',(0.,1.,0.));
#289=DIRECTION('',(0.,1.,0.));
#290=DIRECTION('',(0.,1.,0.));
#291=DIRECTION('',(0.,0.,1.));
#292=DIRECTION('center_axis',(-3.57273960697922E-33,-1.,0.));
#293=DIRECTION('ref_axis',(1.,-3.57273960697922E-33,0.));
#294=DIRECTION('',(1.,-3.57273960697922E-33,0.));
#295=DIRECTION('',(1.,-3.57273960697922E-33,0.));
#296=DIRECTION('',(0.,0.,1.));
#297=DIRECTION('center_axis',(-1.,2.95485142152562E-33,0.));
#298=DIRECTION('ref_axis',(-2.95485142152562E-33,-1.,0.));
#299=DIRECTION('',(-2.95485142152562E-33,-1.,0.));
#300=DIRECTION('',(-2.95485142152562E-33,-1.,0.));
#301=DIRECTION('',(0.,0.,1.));
#302=DIRECTION('center_axis',(0.,1.,0.));
#303=DIRECTION('ref_axis',(-1.,0.,0.));
#304=DIRECTION('',(-1.,0.,0.));
#305=DIRECTION('',(-1.,0.,0.));
#306=DIRECTION('center_axis',(0.,0.,1.));
#307=DIRECTION('ref_axis',(1.,0.,0.));
#308=DIRECTION('center_axis',(0.,0.,1.));
#309=DIRECTION('ref_axis',(1.,0.,0.));
#310=CARTESIAN_POINT('',(0.,0.,0.));
#311=CARTESIAN_POINT('Origin',(34.5,20.075,10.));
#312=CARTESIAN_POINT('',(34.5,-1.48313227439021E-48,13.38975));
#313=CARTESIAN_POINT('Origin',(34.5,0.,10.));
#314=CARTESIAN_POINT('',(34.5,20.,13.38975));
#315=CARTESIAN_POINT('',(34.5,20.075,13.38975));
#316=CARTESIAN_POINT('',(31.11025,20.2689002890218,10.));
#317=CARTESIAN_POINT('Ctrl Pts',(31.11025,20.2689002890218,10.));
#318=CARTESIAN_POINT('Ctrl Pts',(31.11025,20.2689002890218,9.57360564968363));
#319=CARTESIAN_POINT('Ctrl Pts',(31.1956109294591,20.2547271584799,9.1192853535316));
#320=CARTESIAN_POINT('Ctrl Pts',(31.5417663215777,20.2037689153051,8.28433706334055));
#321=CARTESIAN_POINT('Ctrl Pts',(31.8025226273613,20.1677453054444,7.90364694958451));
#322=CARTESIAN_POINT('Ctrl Pts',(32.4036405388762,20.1003096368906,7.30252903806957));
#323=CARTESIAN_POINT('Ctrl Pts',(32.7843334124273,20.0644824059214,7.04176770343896));
#324=CARTESIAN_POINT('Ctrl Pts',(33.6192911546421,20.0139748141263,6.69560865616281));
#325=CARTESIAN_POINT('Ctrl Pts',(34.0736147442742,20.,6.61025));
#326=CARTESIAN_POINT('Ctrl Pts',(34.9263852557258,20.,6.61025));
#327=CARTESIAN_POINT('Ctrl Pts',(35.3807088453579,20.0139748141263,6.69560865616281));
#328=CARTESIAN_POINT('Ctrl Pts',(36.2156665875727,20.0644824059214,7.04176770343896));
#329=CARTESIAN_POINT('Ctrl Pts',(36.5963594611238,20.1003096368906,7.30252903806957));
#330=CARTESIAN_POINT('Ctrl Pts',(37.1974773726387,20.1677453054444,7.90364694958451));
#331=CARTESIAN_POINT('Ctrl Pts',(37.4582336784223,20.2037689153051,8.28433706334055));
#332=CARTESIAN_POINT('Ctrl Pts',(37.8043890705409,20.2547271584799,9.1192853535316));
#333=CARTESIAN_POINT('Ctrl Pts',(37.88975,20.2689002890218,9.57360564968363));
#334=CARTESIAN_POINT('Ctrl Pts',(37.88975,20.2689002890218,10.4263943503164));
#335=CARTESIAN_POINT('Ctrl Pts',(37.8043890705409,20.2547271584799,10.8807146464684));
#336=CARTESIAN_POINT('Ctrl Pts',(37.4582336784223,20.2037689153051,11.7156629366594));
#337=CARTESIAN_POINT('Ctrl Pts',(37.1974773726387,20.1677453054444,12.0963530504155));
#338=CARTESIAN_POINT('Ctrl Pts',(36.5963594611238,20.1003096368906,12.6974709619304));
#339=CARTESIAN_POINT('Ctrl Pts',(36.2156665875727,20.0644824059214,12.958232296561));
#340=CARTESIAN_POINT('Ctrl Pts',(35.3807088453579,20.0139748141263,13.3043913438372));
#341=CARTESIAN_POINT('Ctrl Pts',(34.9263852557258,20.,13.38975));
#342=CARTESIAN_POINT('Ctrl Pts',(34.5,20.,13.38975));
#343=CARTESIAN_POINT('Ctrl Pts',(34.5,20.,13.38975));
#344=CARTESIAN_POINT('Ctrl Pts',(34.0736147442742,20.,13.38975));
#345=CARTESIAN_POINT('Ctrl Pts',(33.6192911546421,20.0139748141263,13.3043913438372));
#346=CARTESIAN_POINT('Ctrl Pts',(32.7843334124273,20.0644824059214,12.958232296561));
#347=CARTESIAN_POINT('Ctrl Pts',(32.4036405388762,20.1003096368906,12.6974709619304));
#348=CARTESIAN_POINT('Ctrl Pts',(31.8025226273613,20.1677453054444,12.0963530504155));
#349=CARTESIAN_POINT('Ctrl Pts',(31.5417663215777,20.2037689153051,11.7156629366594));
#350=CARTESIAN_POINT('Ctrl Pts',(31.1956109294591,20.2547271584799,10.8807146464684));
#351=CARTESIAN_POINT('Ctrl Pts',(31.11025,20.2689002890218,10.4263943503164));
#352=CARTESIAN_POINT('Ctrl Pts',(31.11025,20.2689002890218,10.));
#353=CARTESIAN_POINT('Origin',(61.,20.075,10.));
#354=CARTESIAN_POINT('',(61.,-1.48313227439021E-48,13.38975));
#355=CARTESIAN_POINT('Origin',(61.,0.,10.));
#356=CARTESIAN_POINT('',(61.,36.5,13.38975));
#357=CARTESIAN_POINT('',(61.,20.075,13.38975));
#358=CARTESIAN_POINT('Origin',(61.,36.5,10.));
#359=CARTESIAN_POINT('Origin',(8.,20.075,10.));
#360=CARTESIAN_POINT('',(8.,-1.48313227439021E-48,13.38975));
#361=CARTESIAN_POINT('Origin',(8.,0.,10.));
#362=CARTESIAN_POINT('',(8.,36.5,13.38975));
#363=CARTESIAN_POINT('',(8.,20.075,13.38975));
#364=CARTESIAN_POINT('Origin',(8.,36.5,10.));
#365=CARTESIAN_POINT('Origin',(34.5,41.5,0.));
#366=CARTESIAN_POINT('',(13.5894763336735,36.5,0.));
#367=CARTESIAN_POINT('',(55.4105236663265,36.5,0.));
#368=CARTESIAN_POINT('Origin',(34.5,41.5,0.));
#369=CARTESIAN_POINT('',(13.5894763336735,36.5,20.));
#370=CARTESIAN_POINT('',(13.5894763336735,36.5,0.));
#371=CARTESIAN_POINT('',(55.4105236663265,36.5,20.));
#372=CARTESIAN_POINT('Origin',(34.5,41.5,20.));
#373=CARTESIAN_POINT('',(55.4105236663265,36.5,0.));
#374=CARTESIAN_POINT('Origin',(69.,36.5,0.));
#375=CARTESIAN_POINT('',(69.,36.5,0.));
#376=CARTESIAN_POINT('',(69.,36.5,0.));
#377=CARTESIAN_POINT('',(69.,36.5,20.));
#378=CARTESIAN_POINT('',(69.,36.5,20.));
#379=CARTESIAN_POINT('',(69.,36.5,0.));
#380=CARTESIAN_POINT('Origin',(69.,-2.46519032881566E-31,0.));
#381=CARTESIAN_POINT('',(69.,-2.46519032881566E-31,0.));
#382=CARTESIAN_POINT('',(69.,-2.46519032881566E-31,0.));
#383=CARTESIAN_POINT('',(69.,0.,20.));
#384=CARTESIAN_POINT('',(69.,-2.46519032881566E-31,20.));
#385=CARTESIAN_POINT('',(69.,-2.46519032881566E-31,0.));
#386=CARTESIAN_POINT('Origin',(0.,0.,0.));
#387=CARTESIAN_POINT('',(0.,0.,0.));
#388=CARTESIAN_POINT('',(0.,0.,0.));
#389=CARTESIAN_POINT('',(0.,0.,20.));
#390=CARTESIAN_POINT('',(0.,0.,20.));
#391=CARTESIAN_POINT('',(0.,0.,0.));
#392=CARTESIAN_POINT('Origin',(1.07852076885685E-31,36.5,0.));
#393=CARTESIAN_POINT('',(1.07852076885685E-31,36.5,0.));
#394=CARTESIAN_POINT('',(1.07852076885685E-31,36.5,0.));
#395=CARTESIAN_POINT('',(0.,36.5,20.));
#396=CARTESIAN_POINT('',(1.07852076885685E-31,36.5,20.));
#397=CARTESIAN_POINT('',(1.07852076885685E-31,36.5,0.));
#398=CARTESIAN_POINT('Origin',(13.5894763336735,36.5,0.));
#399=CARTESIAN_POINT('',(69.,36.5,0.));
#400=CARTESIAN_POINT('',(69.,36.5,20.));
#401=CARTESIAN_POINT('Origin',(34.5,18.25,20.));
#402=CARTESIAN_POINT('Origin',(34.5,18.25,0.));
#403=UNCERTAINTY_MEASURE_WITH_UNIT(LENGTH_MEASURE(0.01),#407,
'DISTANCE_ACCURACY_VALUE',
'Maximum model space distance between geometric entities at asserted c
onnectivities');
#404=UNCERTAINTY_MEASURE_WITH_UNIT(LENGTH_MEASURE(0.01),#407,
'DISTANCE_ACCURACY_VALUE',
'Maximum model space distance between geometric entities at asserted c
onnectivities');
#405=(
GEOMETRIC_REPRESENTATION_CONTEXT(3)
GLOBAL_UNCERTAINTY_ASSIGNED_CONTEXT((#403))
GLOBAL_UNIT_ASSIGNED_CONTEXT((#407,#409,#410))
REPRESENTATION_CONTEXT('','3D')
);
#406=(
GEOMETRIC_REPRESENTATION_CONTEXT(3)
GLOBAL_UNCERTAINTY_ASSIGNED_CONTEXT((#404))
GLOBAL_UNIT_ASSIGNED_CONTEXT((#407,#409,#410))
REPRESENTATION_CONTEXT('','3D')
);
#407=(
LENGTH_UNIT()
NAMED_UNIT(*)
SI_UNIT(.MILLI.,.METRE.)
);
#408=(
LENGTH_UNIT()
NAMED_UNIT(*)
SI_UNIT($,.METRE.)
);
#409=(
NAMED_UNIT(*)
PLANE_ANGLE_UNIT()
SI_UNIT($,.RADIAN.)
);
#410=(
NAMED_UNIT(*)
SI_UNIT($,.STERADIAN.)
SOLID_ANGLE_UNIT()
);
#411=SHAPE_DEFINITION_REPRESENTATION(#412,#413);
#412=PRODUCT_DEFINITION_SHAPE('',$,#415);
#413=SHAPE_REPRESENTATION('',(#234),#405);
#414=PRODUCT_DEFINITION_CONTEXT('part definition',#419,'design');
#415=PRODUCT_DEFINITION('AdaptateurFixation_Arriere',
'AdaptateurFixation_Arriere v2',#416,#414);
#416=PRODUCT_DEFINITION_FORMATION('',$,#421);
#417=PRODUCT_RELATED_PRODUCT_CATEGORY('AdaptateurFixation_Arriere v2',
'AdaptateurFixation_Arriere v2',(#421));
#418=APPLICATION_PROTOCOL_DEFINITION('international standard',
'automotive_design',2009,#419);
#419=APPLICATION_CONTEXT(
'Core Data for Automotive Mechanical Design Process');
#420=PRODUCT_CONTEXT('part definition',#419,'mechanical');
#421=PRODUCT('AdaptateurFixation_Arriere',
'AdaptateurFixation_Arriere v2',$,(#420));
#422=PRESENTATION_STYLE_ASSIGNMENT((#424));
#423=PRESENTATION_STYLE_ASSIGNMENT((#425));
#424=SURFACE_STYLE_USAGE(.BOTH.,#426);
#425=SURFACE_STYLE_USAGE(.BOTH.,#427);
#426=SURFACE_SIDE_STYLE('',(#428));
#427=SURFACE_SIDE_STYLE('',(#429));
#428=SURFACE_STYLE_FILL_AREA(#430);
#429=SURFACE_STYLE_FILL_AREA(#431);
#430=FILL_AREA_STYLE('Acier - Satin\X\E9',(#432));
#431=FILL_AREA_STYLE('Aluminium - Satin\X\E9',(#433));
#432=FILL_AREA_STYLE_COLOUR('Acier - Satin\X\E9',#434);
#433=FILL_AREA_STYLE_COLOUR('Aluminium - Satin\X\E9',#435);
#434=COLOUR_RGB('Acier - Satin\X\E9',0.627450980392157,0.627450980392157,
0.627450980392157);
#435=COLOUR_RGB('Aluminium - Satin\X\E9',0.96078431372549,0.96078431372549,
0.964705882352941);
ENDSEC;
END-ISO-10303-21;
