ISO-10303-21;
HEADER;
/* Generated by software containing ST-Developer
 * from STEP Tools, Inc. (www.steptools.com) 
 */

FILE_DESCRIPTION(
/* description */ (''),
/* implementation_level */ '2;1');

FILE_NAME(
/* name */ 
'D:/Dropbox/9-CNC/1AA-TRIGENERAL/1-TournageMetal/7A-TourMetalJET/Piece
 A.step',
/* time_stamp */ '2020-09-07T10:45:01+02:00',
/* author */ (''),
/* organization */ (''),
/* preprocessor_version */ 'ST-DEVELOPER v18.1',
/* originating_system */ 'Autodesk Translation Framework v9.3.0.1241',
/* authorisation */ '');

FILE_SCHEMA (('AUTOMOTIVE_DESIGN { 1 0 10303 214 3 1 1 }'));
ENDSEC;

DATA;
#10=MECHANICAL_DESIGN_GEOMETRIC_PRESENTATION_REPRESENTATION('',(#13),#316);
#11=SHAPE_REPRESENTATION_RELATIONSHIP('SRR','None',#323,#12);
#12=ADVANCED_BREP_SHAPE_REPRESENTATION('',(#14),#315);
#13=STYLED_ITEM('',(#332),#14);
#14=MANIFOLD_SOLID_BREP('Body1',#168);
#15=FACE_BOUND('',#38,.T.);
#16=FACE_BOUND('',#47,.T.);
#17=PLANE('',#189);
#18=PLANE('',#196);
#19=PLANE('',#201);
#20=PLANE('',#206);
#21=CYLINDRICAL_SURFACE('',#186,14.);
#22=CYLINDRICAL_SURFACE('',#195,11.);
#23=CYLINDRICAL_SURFACE('',#202,6.);
#24=FACE_OUTER_BOUND('',#35,.T.);
#25=FACE_OUTER_BOUND('',#36,.T.);
#26=FACE_OUTER_BOUND('',#37,.T.);
#27=FACE_OUTER_BOUND('',#39,.T.);
#28=FACE_OUTER_BOUND('',#40,.T.);
#29=FACE_OUTER_BOUND('',#41,.T.);
#30=FACE_OUTER_BOUND('',#42,.T.);
#31=FACE_OUTER_BOUND('',#43,.T.);
#32=FACE_OUTER_BOUND('',#44,.T.);
#33=FACE_OUTER_BOUND('',#45,.T.);
#34=FACE_OUTER_BOUND('',#46,.T.);
#35=EDGE_LOOP('',(#111,#112,#113,#114,#115));
#36=EDGE_LOOP('',(#116,#117,#118,#119,#120,#121));
#37=EDGE_LOOP('',(#122));
#38=EDGE_LOOP('',(#123));
#39=EDGE_LOOP('',(#124,#125,#126,#127,#128));
#40=EDGE_LOOP('',(#129,#130,#131,#132,#133));
#41=EDGE_LOOP('',(#134));
#42=EDGE_LOOP('',(#135,#136,#137,#138,#139));
#43=EDGE_LOOP('',(#140));
#44=EDGE_LOOP('',(#141,#142,#143,#144,#145));
#45=EDGE_LOOP('',(#146,#147,#148,#149,#150));
#46=EDGE_LOOP('',(#151));
#47=EDGE_LOOP('',(#152));
#48=LINE('',#271,#55);
#49=LINE('',#277,#56);
#50=LINE('',#288,#57);
#51=LINE('',#293,#58);
#52=LINE('',#301,#59);
#53=LINE('',#307,#60);
#54=LINE('',#310,#61);
#55=VECTOR('',#213,13.75);
#56=VECTOR('',#220,14.);
#57=VECTOR('',#233,10.75);
#58=VECTOR('',#240,11.);
#59=VECTOR('',#249,5.75);
#60=VECTOR('',#258,6.);
#61=VECTOR('',#261,13.75);
#62=CIRCLE('',#183,13.5);
#63=CIRCLE('',#184,14.);
#64=CIRCLE('',#185,14.);
#65=CIRCLE('',#187,14.);
#66=CIRCLE('',#188,14.);
#67=CIRCLE('',#190,11.);
#68=CIRCLE('',#192,10.5);
#69=CIRCLE('',#193,11.);
#70=CIRCLE('',#194,11.);
#71=CIRCLE('',#198,6.);
#72=CIRCLE('',#199,6.);
#73=CIRCLE('',#200,5.5);
#74=CIRCLE('',#203,6.);
#75=CIRCLE('',#205,13.5);
#76=VERTEX_POINT('',#268);
#77=VERTEX_POINT('',#270);
#78=VERTEX_POINT('',#272);
#79=VERTEX_POINT('',#276);
#80=VERTEX_POINT('',#278);
#81=VERTEX_POINT('',#282);
#82=VERTEX_POINT('',#285);
#83=VERTEX_POINT('',#287);
#84=VERTEX_POINT('',#289);
#85=VERTEX_POINT('',#296);
#86=VERTEX_POINT('',#297);
#87=VERTEX_POINT('',#300);
#88=VERTEX_POINT('',#305);
#89=VERTEX_POINT('',#309);
#90=EDGE_CURVE('',#76,#76,#62,.T.);
#91=EDGE_CURVE('',#76,#77,#48,.T.);
#92=EDGE_CURVE('',#77,#78,#63,.T.);
#93=EDGE_CURVE('',#78,#77,#64,.T.);
#94=EDGE_CURVE('',#78,#79,#49,.T.);
#95=EDGE_CURVE('',#80,#79,#65,.T.);
#96=EDGE_CURVE('',#79,#80,#66,.T.);
#97=EDGE_CURVE('',#81,#81,#67,.T.);
#98=EDGE_CURVE('',#82,#82,#68,.T.);
#99=EDGE_CURVE('',#82,#83,#50,.T.);
#100=EDGE_CURVE('',#83,#84,#69,.T.);
#101=EDGE_CURVE('',#84,#83,#70,.T.);
#102=EDGE_CURVE('',#84,#81,#51,.T.);
#103=EDGE_CURVE('',#85,#86,#71,.T.);
#104=EDGE_CURVE('',#86,#85,#72,.T.);
#105=EDGE_CURVE('',#85,#87,#52,.T.);
#106=EDGE_CURVE('',#87,#87,#73,.T.);
#107=EDGE_CURVE('',#88,#88,#74,.T.);
#108=EDGE_CURVE('',#88,#86,#53,.T.);
#109=EDGE_CURVE('',#80,#89,#54,.T.);
#110=EDGE_CURVE('',#89,#89,#75,.T.);
#111=ORIENTED_EDGE('',*,*,#90,.T.);
#112=ORIENTED_EDGE('',*,*,#91,.T.);
#113=ORIENTED_EDGE('',*,*,#92,.T.);
#114=ORIENTED_EDGE('',*,*,#93,.T.);
#115=ORIENTED_EDGE('',*,*,#91,.F.);
#116=ORIENTED_EDGE('',*,*,#92,.F.);
#117=ORIENTED_EDGE('',*,*,#93,.F.);
#118=ORIENTED_EDGE('',*,*,#94,.T.);
#119=ORIENTED_EDGE('',*,*,#95,.F.);
#120=ORIENTED_EDGE('',*,*,#96,.F.);
#121=ORIENTED_EDGE('',*,*,#94,.F.);
#122=ORIENTED_EDGE('',*,*,#90,.F.);
#123=ORIENTED_EDGE('',*,*,#97,.F.);
#124=ORIENTED_EDGE('',*,*,#98,.T.);
#125=ORIENTED_EDGE('',*,*,#99,.T.);
#126=ORIENTED_EDGE('',*,*,#100,.T.);
#127=ORIENTED_EDGE('',*,*,#101,.T.);
#128=ORIENTED_EDGE('',*,*,#99,.F.);
#129=ORIENTED_EDGE('',*,*,#100,.F.);
#130=ORIENTED_EDGE('',*,*,#101,.F.);
#131=ORIENTED_EDGE('',*,*,#102,.T.);
#132=ORIENTED_EDGE('',*,*,#97,.T.);
#133=ORIENTED_EDGE('',*,*,#102,.F.);
#134=ORIENTED_EDGE('',*,*,#98,.F.);
#135=ORIENTED_EDGE('',*,*,#103,.T.);
#136=ORIENTED_EDGE('',*,*,#104,.T.);
#137=ORIENTED_EDGE('',*,*,#105,.T.);
#138=ORIENTED_EDGE('',*,*,#106,.T.);
#139=ORIENTED_EDGE('',*,*,#105,.F.);
#140=ORIENTED_EDGE('',*,*,#106,.F.);
#141=ORIENTED_EDGE('',*,*,#107,.F.);
#142=ORIENTED_EDGE('',*,*,#108,.T.);
#143=ORIENTED_EDGE('',*,*,#103,.F.);
#144=ORIENTED_EDGE('',*,*,#104,.F.);
#145=ORIENTED_EDGE('',*,*,#108,.F.);
#146=ORIENTED_EDGE('',*,*,#95,.T.);
#147=ORIENTED_EDGE('',*,*,#96,.T.);
#148=ORIENTED_EDGE('',*,*,#109,.T.);
#149=ORIENTED_EDGE('',*,*,#110,.T.);
#150=ORIENTED_EDGE('',*,*,#109,.F.);
#151=ORIENTED_EDGE('',*,*,#110,.F.);
#152=ORIENTED_EDGE('',*,*,#107,.T.);
#153=CONICAL_SURFACE('',#182,13.75,0.785398163397448);
#154=CONICAL_SURFACE('',#191,10.75,0.785398163397451);
#155=CONICAL_SURFACE('',#197,5.75,0.785398163397448);
#156=CONICAL_SURFACE('',#204,13.75,0.785398163397449);
#157=ADVANCED_FACE('',(#24),#153,.T.);
#158=ADVANCED_FACE('',(#25),#21,.T.);
#159=ADVANCED_FACE('',(#26,#15),#17,.T.);
#160=ADVANCED_FACE('',(#27),#154,.T.);
#161=ADVANCED_FACE('',(#28),#22,.T.);
#162=ADVANCED_FACE('',(#29),#18,.T.);
#163=ADVANCED_FACE('',(#30),#155,.T.);
#164=ADVANCED_FACE('',(#31),#19,.T.);
#165=ADVANCED_FACE('',(#32),#23,.T.);
#166=ADVANCED_FACE('',(#33),#156,.T.);
#167=ADVANCED_FACE('',(#34,#16),#20,.T.);
#168=CLOSED_SHELL('',(#157,#158,#159,#160,#161,#162,#163,#164,#165,#166,
#167));
#169=DERIVED_UNIT_ELEMENT(#171,1.);
#170=DERIVED_UNIT_ELEMENT(#318,3.);
#171=(
MASS_UNIT()
NAMED_UNIT(*)
SI_UNIT(.KILO.,.GRAM.)
);
#172=DERIVED_UNIT((#169,#170));
#173=MEASURE_REPRESENTATION_ITEM('density measure',
POSITIVE_RATIO_MEASURE(7850.),#172);
#174=PROPERTY_DEFINITION_REPRESENTATION(#179,#176);
#175=PROPERTY_DEFINITION_REPRESENTATION(#180,#177);
#176=REPRESENTATION('material name',(#178),#315);
#177=REPRESENTATION('density',(#173),#315);
#178=DESCRIPTIVE_REPRESENTATION_ITEM('Steel','Steel');
#179=PROPERTY_DEFINITION('material property','material name',#325);
#180=PROPERTY_DEFINITION('material property','density of part',#325);
#181=AXIS2_PLACEMENT_3D('placement',#266,#207,#208);
#182=AXIS2_PLACEMENT_3D('',#267,#209,#210);
#183=AXIS2_PLACEMENT_3D('',#269,#211,#212);
#184=AXIS2_PLACEMENT_3D('',#273,#214,#215);
#185=AXIS2_PLACEMENT_3D('',#274,#216,#217);
#186=AXIS2_PLACEMENT_3D('',#275,#218,#219);
#187=AXIS2_PLACEMENT_3D('',#279,#221,#222);
#188=AXIS2_PLACEMENT_3D('',#280,#223,#224);
#189=AXIS2_PLACEMENT_3D('',#281,#225,#226);
#190=AXIS2_PLACEMENT_3D('',#283,#227,#228);
#191=AXIS2_PLACEMENT_3D('',#284,#229,#230);
#192=AXIS2_PLACEMENT_3D('',#286,#231,#232);
#193=AXIS2_PLACEMENT_3D('',#290,#234,#235);
#194=AXIS2_PLACEMENT_3D('',#291,#236,#237);
#195=AXIS2_PLACEMENT_3D('',#292,#238,#239);
#196=AXIS2_PLACEMENT_3D('',#294,#241,#242);
#197=AXIS2_PLACEMENT_3D('',#295,#243,#244);
#198=AXIS2_PLACEMENT_3D('',#298,#245,#246);
#199=AXIS2_PLACEMENT_3D('',#299,#247,#248);
#200=AXIS2_PLACEMENT_3D('',#302,#250,#251);
#201=AXIS2_PLACEMENT_3D('',#303,#252,#253);
#202=AXIS2_PLACEMENT_3D('',#304,#254,#255);
#203=AXIS2_PLACEMENT_3D('',#306,#256,#257);
#204=AXIS2_PLACEMENT_3D('',#308,#259,#260);
#205=AXIS2_PLACEMENT_3D('',#311,#262,#263);
#206=AXIS2_PLACEMENT_3D('',#312,#264,#265);
#207=DIRECTION('axis',(0.,0.,1.));
#208=DIRECTION('refdir',(1.,0.,0.));
#209=DIRECTION('center_axis',(1.,0.,0.));
#210=DIRECTION('ref_axis',(0.,0.,-1.));
#211=DIRECTION('center_axis',(1.,0.,0.));
#212=DIRECTION('ref_axis',(0.,0.,-1.));
#213=DIRECTION('',(0.707106781186547,8.65956056235493E-17,0.707106781186547));
#214=DIRECTION('center_axis',(-1.,0.,0.));
#215=DIRECTION('ref_axis',(0.,0.,-1.));
#216=DIRECTION('center_axis',(-1.,0.,0.));
#217=DIRECTION('ref_axis',(0.,0.,-1.));
#218=DIRECTION('center_axis',(-1.,0.,0.));
#219=DIRECTION('ref_axis',(0.,0.,1.));
#220=DIRECTION('',(1.,0.,0.));
#221=DIRECTION('center_axis',(1.,0.,0.));
#222=DIRECTION('ref_axis',(0.,0.,-1.));
#223=DIRECTION('center_axis',(1.,0.,0.));
#224=DIRECTION('ref_axis',(0.,0.,-1.));
#225=DIRECTION('center_axis',(-1.,0.,0.));
#226=DIRECTION('ref_axis',(0.,0.,1.));
#227=DIRECTION('center_axis',(-1.,0.,0.));
#228=DIRECTION('ref_axis',(0.,0.,1.));
#229=DIRECTION('center_axis',(1.,0.,0.));
#230=DIRECTION('ref_axis',(0.,0.,-1.));
#231=DIRECTION('center_axis',(1.,0.,0.));
#232=DIRECTION('ref_axis',(0.,0.,-1.));
#233=DIRECTION('',(0.707106781186546,8.65956056235495E-17,0.707106781186549));
#234=DIRECTION('center_axis',(-1.,0.,0.));
#235=DIRECTION('ref_axis',(0.,0.,-1.));
#236=DIRECTION('center_axis',(-1.,0.,0.));
#237=DIRECTION('ref_axis',(0.,0.,-1.));
#238=DIRECTION('center_axis',(-1.,0.,0.));
#239=DIRECTION('ref_axis',(0.,0.,1.));
#240=DIRECTION('',(1.,0.,0.));
#241=DIRECTION('center_axis',(-1.,0.,0.));
#242=DIRECTION('ref_axis',(0.,0.,1.));
#243=DIRECTION('center_axis',(-1.,0.,0.));
#244=DIRECTION('ref_axis',(0.,0.,-1.));
#245=DIRECTION('center_axis',(1.,0.,0.));
#246=DIRECTION('ref_axis',(0.,0.,-1.));
#247=DIRECTION('center_axis',(1.,0.,0.));
#248=DIRECTION('ref_axis',(0.,0.,-1.));
#249=DIRECTION('',(0.707106781186548,-8.65956056235493E-17,-0.707106781186548));
#250=DIRECTION('center_axis',(-1.,0.,0.));
#251=DIRECTION('ref_axis',(0.,0.,-1.));
#252=DIRECTION('center_axis',(1.,0.,0.));
#253=DIRECTION('ref_axis',(0.,0.,-1.));
#254=DIRECTION('center_axis',(-1.,0.,0.));
#255=DIRECTION('ref_axis',(0.,0.,1.));
#256=DIRECTION('center_axis',(-1.,0.,0.));
#257=DIRECTION('ref_axis',(0.,0.,1.));
#258=DIRECTION('',(1.,0.,0.));
#259=DIRECTION('center_axis',(-1.,0.,0.));
#260=DIRECTION('ref_axis',(0.,0.,-1.));
#261=DIRECTION('',(0.707106781186547,-8.65956056235494E-17,-0.707106781186548));
#262=DIRECTION('center_axis',(-1.,0.,0.));
#263=DIRECTION('ref_axis',(0.,0.,-1.));
#264=DIRECTION('center_axis',(1.,0.,0.));
#265=DIRECTION('ref_axis',(0.,0.,-1.));
#266=CARTESIAN_POINT('',(0.,0.,0.));
#267=CARTESIAN_POINT('Origin',(-5.75,0.,0.));
#268=CARTESIAN_POINT('',(-6.,-1.65327317884893E-15,13.5));
#269=CARTESIAN_POINT('Origin',(-6.,0.,0.));
#270=CARTESIAN_POINT('',(-5.5,1.71450551880629E-15,14.));
#271=CARTESIAN_POINT('',(-5.75,1.68388934882761E-15,13.75));
#272=CARTESIAN_POINT('',(-5.5,-1.71450551880629E-15,-14.));
#273=CARTESIAN_POINT('Origin',(-5.5,0.,0.));
#274=CARTESIAN_POINT('Origin',(-5.5,0.,0.));
#275=CARTESIAN_POINT('Origin',(-3.,0.,0.));
#276=CARTESIAN_POINT('',(-0.5,-1.71450551880629E-15,-14.));
#277=CARTESIAN_POINT('',(-3.,-1.71450551880629E-15,-14.));
#278=CARTESIAN_POINT('',(-0.5,-1.71450551880629E-15,14.));
#279=CARTESIAN_POINT('Origin',(-0.5,0.,0.));
#280=CARTESIAN_POINT('Origin',(-0.5,0.,0.));
#281=CARTESIAN_POINT('Origin',(-6.,0.,11.));
#282=CARTESIAN_POINT('',(-6.,-1.34711147906209E-15,-11.));
#283=CARTESIAN_POINT('Origin',(-6.,0.,0.));
#284=CARTESIAN_POINT('Origin',(-25.75,0.,0.));
#285=CARTESIAN_POINT('',(-26.,-1.28587913910472E-15,10.5));
#286=CARTESIAN_POINT('Origin',(-26.,0.,0.));
#287=CARTESIAN_POINT('',(-25.5,1.34711147906209E-15,11.));
#288=CARTESIAN_POINT('',(-25.75,1.3164953090834E-15,10.75));
#289=CARTESIAN_POINT('',(-25.5,-1.34711147906209E-15,-11.));
#290=CARTESIAN_POINT('Origin',(-25.5,0.,0.));
#291=CARTESIAN_POINT('Origin',(-25.5,0.,0.));
#292=CARTESIAN_POINT('Origin',(-16.,0.,0.));
#293=CARTESIAN_POINT('',(-16.,-1.34711147906209E-15,-11.));
#294=CARTESIAN_POINT('Origin',(-26.,0.,0.));
#295=CARTESIAN_POINT('Origin',(11.75,0.,0.));
#296=CARTESIAN_POINT('',(11.5,-7.34788079488412E-16,6.));
#297=CARTESIAN_POINT('',(11.5,-7.34788079488412E-16,-6.));
#298=CARTESIAN_POINT('Origin',(11.5,0.,0.));
#299=CARTESIAN_POINT('Origin',(11.5,0.,0.));
#300=CARTESIAN_POINT('',(12.,6.73555739531044E-16,5.5));
#301=CARTESIAN_POINT('',(11.75,7.04171909509728E-16,5.75));
#302=CARTESIAN_POINT('Origin',(12.,0.,0.));
#303=CARTESIAN_POINT('Origin',(12.,0.,6.));
#304=CARTESIAN_POINT('Origin',(6.,0.,0.));
#305=CARTESIAN_POINT('',(0.,-7.34788079488412E-16,-6.));
#306=CARTESIAN_POINT('Origin',(0.,0.,0.));
#307=CARTESIAN_POINT('',(6.,-7.34788079488412E-16,-6.));
#308=CARTESIAN_POINT('Origin',(-0.25,0.,0.));
#309=CARTESIAN_POINT('',(0.,1.65327317884893E-15,13.5));
#310=CARTESIAN_POINT('',(-0.25,1.68388934882761E-15,13.75));
#311=CARTESIAN_POINT('Origin',(0.,0.,0.));
#312=CARTESIAN_POINT('Origin',(0.,0.,14.));
#313=UNCERTAINTY_MEASURE_WITH_UNIT(LENGTH_MEASURE(0.01),#317,
'DISTANCE_ACCURACY_VALUE',
'Maximum model space distance between geometric entities at asserted c
onnectivities');
#314=UNCERTAINTY_MEASURE_WITH_UNIT(LENGTH_MEASURE(0.01),#317,
'DISTANCE_ACCURACY_VALUE',
'Maximum model space distance between geometric entities at asserted c
onnectivities');
#315=(
GEOMETRIC_REPRESENTATION_CONTEXT(3)
GLOBAL_UNCERTAINTY_ASSIGNED_CONTEXT((#313))
GLOBAL_UNIT_ASSIGNED_CONTEXT((#317,#319,#320))
REPRESENTATION_CONTEXT('','3D')
);
#316=(
GEOMETRIC_REPRESENTATION_CONTEXT(3)
GLOBAL_UNCERTAINTY_ASSIGNED_CONTEXT((#314))
GLOBAL_UNIT_ASSIGNED_CONTEXT((#317,#319,#320))
REPRESENTATION_CONTEXT('','3D')
);
#317=(
LENGTH_UNIT()
NAMED_UNIT(*)
SI_UNIT(.MILLI.,.METRE.)
);
#318=(
LENGTH_UNIT()
NAMED_UNIT(*)
SI_UNIT($,.METRE.)
);
#319=(
NAMED_UNIT(*)
PLANE_ANGLE_UNIT()
SI_UNIT($,.RADIAN.)
);
#320=(
NAMED_UNIT(*)
SI_UNIT($,.STERADIAN.)
SOLID_ANGLE_UNIT()
);
#321=SHAPE_DEFINITION_REPRESENTATION(#322,#323);
#322=PRODUCT_DEFINITION_SHAPE('',$,#325);
#323=SHAPE_REPRESENTATION('',(#181),#315);
#324=PRODUCT_DEFINITION_CONTEXT('part definition',#329,'design');
#325=PRODUCT_DEFINITION('FusionComponent','FusionComponent',#326,#324);
#326=PRODUCT_DEFINITION_FORMATION('',$,#331);
#327=PRODUCT_RELATED_PRODUCT_CATEGORY('FusionComponent',
'FusionComponent',(#331));
#328=APPLICATION_PROTOCOL_DEFINITION('international standard',
'automotive_design',2009,#329);
#329=APPLICATION_CONTEXT(
'Core Data for Automotive Mechanical Design Process');
#330=PRODUCT_CONTEXT('part definition',#329,'mechanical');
#331=PRODUCT('FusionComponent','FusionComponent',$,(#330));
#332=PRESENTATION_STYLE_ASSIGNMENT((#333));
#333=SURFACE_STYLE_USAGE(.BOTH.,#334);
#334=SURFACE_SIDE_STYLE('',(#335));
#335=SURFACE_STYLE_FILL_AREA(#336);
#336=FILL_AREA_STYLE('Steel - Satin',(#337));
#337=FILL_AREA_STYLE_COLOUR('Steel - Satin',#338);
#338=COLOUR_RGB('Steel - Satin',0.627450980392157,0.627450980392157,0.627450980392157);
ENDSEC;
END-ISO-10303-21;
