ISO-10303-21;
HEADER;
/* Generated by software containing ST-Developer
 * from STEP Tools, Inc. (www.steptools.com) 
 */

FILE_DESCRIPTION(
/* description */ (''),
/* implementation_level */ '2;1');

FILE_NAME(
/* name */ 
'C:\\Users\\Valerick\\Documents\\Tir\\Lunette Cible mobile\\Axe reglag
e lunette TCM.stp',
/* time_stamp */ '2020-09-27T17:45:20+02:00',
/* author */ ('Valerick'),
/* organization */ (''),
/* preprocessor_version */ 'ST-DEVELOPER v16.13',
/* originating_system */ 'Autodesk Inventor 2018',
/* authorisation */ '');

FILE_SCHEMA (('AUTOMOTIVE_DESIGN { 1 0 10303 214 3 1 1 }'));
ENDSEC;

DATA;
#10=MECHANICAL_DESIGN_GEOMETRIC_PRESENTATION_REPRESENTATION('',(#13),#454);
#11=SHAPE_REPRESENTATION_RELATIONSHIP('SRR','None',#461,#12);
#12=ADVANCED_BREP_SHAPE_REPRESENTATION('',(#14),#453);
#13=STYLED_ITEM('',(#470),#14);
#14=MANIFOLD_SOLID_BREP('Solide1',#220);
#15=PLANE('',#249);
#16=PLANE('',#250);
#17=PLANE('',#254);
#18=PLANE('',#258);
#19=PLANE('',#259);
#20=PLANE('',#263);
#21=PLANE('',#267);
#22=PLANE('',#271);
#23=PLANE('',#275);
#24=CONICAL_SURFACE('',#244,1.6,0.785398163397448);
#25=FACE_BOUND('',#88,.T.);
#26=FACE_BOUND('',#89,.T.);
#27=FACE_BOUND('',#91,.T.);
#28=FACE_BOUND('',#93,.T.);
#29=FACE_BOUND('',#97,.T.);
#30=FACE_BOUND('',#99,.T.);
#31=FACE_BOUND('',#101,.T.);
#32=FACE_BOUND('',#103,.T.);
#33=FACE_BOUND('',#105,.T.);
#34=FACE_BOUND('',#107,.T.);
#35=FACE_BOUND('',#109,.T.);
#36=FACE_BOUND('',#111,.T.);
#37=FACE_BOUND('',#113,.T.);
#38=FACE_BOUND('',#115,.T.);
#39=FACE_BOUND('',#117,.T.);
#40=FACE_BOUND('',#119,.T.);
#41=FACE_BOUND('',#121,.T.);
#42=CIRCLE('',#242,3.14999999999998);
#43=CIRCLE('',#243,3.14999999999999);
#44=CIRCLE('',#245,1.75);
#45=CIRCLE('',#246,1.45);
#46=CIRCLE('',#248,1.75);
#47=CIRCLE('',#251,3.14999999999998);
#48=CIRCLE('',#253,3.14999999999997);
#49=CIRCLE('',#255,3.04999999999998);
#50=CIRCLE('',#257,3.04999999999998);
#51=CIRCLE('',#260,3.54999999999999);
#52=CIRCLE('',#262,3.54999999999999);
#53=CIRCLE('',#264,2.54999999999999);
#54=CIRCLE('',#266,2.54999999999999);
#55=CIRCLE('',#268,1.75);
#56=CIRCLE('',#270,1.75);
#57=CIRCLE('',#272,1.3);
#58=CIRCLE('',#274,1.3);
#59=CYLINDRICAL_SURFACE('',#241,3.14999999999998);
#60=CYLINDRICAL_SURFACE('',#247,1.75);
#61=CYLINDRICAL_SURFACE('',#252,3.14999999999998);
#62=CYLINDRICAL_SURFACE('',#256,3.04999999999998);
#63=CYLINDRICAL_SURFACE('',#261,3.54999999999999);
#64=CYLINDRICAL_SURFACE('',#265,2.54999999999999);
#65=CYLINDRICAL_SURFACE('',#269,1.75);
#66=CYLINDRICAL_SURFACE('',#273,1.3);
#67=FACE_OUTER_BOUND('',#86,.T.);
#68=FACE_OUTER_BOUND('',#87,.T.);
#69=FACE_OUTER_BOUND('',#90,.T.);
#70=FACE_OUTER_BOUND('',#92,.T.);
#71=FACE_OUTER_BOUND('',#94,.T.);
#72=FACE_OUTER_BOUND('',#95,.T.);
#73=FACE_OUTER_BOUND('',#96,.T.);
#74=FACE_OUTER_BOUND('',#98,.T.);
#75=FACE_OUTER_BOUND('',#100,.T.);
#76=FACE_OUTER_BOUND('',#102,.T.);
#77=FACE_OUTER_BOUND('',#104,.T.);
#78=FACE_OUTER_BOUND('',#106,.T.);
#79=FACE_OUTER_BOUND('',#108,.T.);
#80=FACE_OUTER_BOUND('',#110,.T.);
#81=FACE_OUTER_BOUND('',#112,.T.);
#82=FACE_OUTER_BOUND('',#114,.T.);
#83=FACE_OUTER_BOUND('',#116,.T.);
#84=FACE_OUTER_BOUND('',#118,.T.);
#85=FACE_OUTER_BOUND('',#120,.T.);
#86=EDGE_LOOP('',(#162,#163));
#87=EDGE_LOOP('',(#164));
#88=EDGE_LOOP('',(#165,#166));
#89=EDGE_LOOP('',(#167));
#90=EDGE_LOOP('',(#168));
#91=EDGE_LOOP('',(#169));
#92=EDGE_LOOP('',(#170));
#93=EDGE_LOOP('',(#171));
#94=EDGE_LOOP('',(#172));
#95=EDGE_LOOP('',(#173));
#96=EDGE_LOOP('',(#174));
#97=EDGE_LOOP('',(#175));
#98=EDGE_LOOP('',(#176));
#99=EDGE_LOOP('',(#177));
#100=EDGE_LOOP('',(#178));
#101=EDGE_LOOP('',(#179));
#102=EDGE_LOOP('',(#180));
#103=EDGE_LOOP('',(#181));
#104=EDGE_LOOP('',(#182));
#105=EDGE_LOOP('',(#183));
#106=EDGE_LOOP('',(#184));
#107=EDGE_LOOP('',(#185));
#108=EDGE_LOOP('',(#186));
#109=EDGE_LOOP('',(#187));
#110=EDGE_LOOP('',(#188));
#111=EDGE_LOOP('',(#189));
#112=EDGE_LOOP('',(#190));
#113=EDGE_LOOP('',(#191));
#114=EDGE_LOOP('',(#192));
#115=EDGE_LOOP('',(#193));
#116=EDGE_LOOP('',(#194));
#117=EDGE_LOOP('',(#195));
#118=EDGE_LOOP('',(#196));
#119=EDGE_LOOP('',(#197));
#120=EDGE_LOOP('',(#198));
#121=EDGE_LOOP('',(#199));
#122=B_SPLINE_CURVE_WITH_KNOTS('',3,(#354,#355,#356,#357,#358,#359,#360,
#361,#362,#363,#364,#365,#366,#367,#368,#369,#370,#371,#372,#373,#374,#375),
 .UNSPECIFIED.,.F.,.F.,(4,2,2,2,2,2,2,2,2,2,4),(0.219084508892571,0.252626279187507,
0.286168049482443,0.324168291558117,0.362168533633792,0.438169017785141,
0.51416950193649,0.552169744012165,0.59016998608784,0.623711756382776,0.657253526677712),
 .UNSPECIFIED.);
#123=B_SPLINE_CURVE_WITH_KNOTS('',3,(#376,#377,#378,#379,#380,#381,#382,
#383,#384,#385,#386,#387,#388,#389,#390,#391,#392,#393,#394,#395,#396,#397,
#398),.UNSPECIFIED.,.F.,.F.,(4,2,2,2,2,3,2,2,2,2,4),(0.657253526677712,
0.690795296972648,0.724337067267584,0.762337309343259,0.800337551418933,
0.876338035570282,0.952338519721632,0.990338761797306,1.02833900387298,
1.06188077416792,1.09542254446285),.UNSPECIFIED.);
#124=VERTEX_POINT('',#352);
#125=VERTEX_POINT('',#353);
#126=VERTEX_POINT('',#400);
#127=VERTEX_POINT('',#402);
#128=VERTEX_POINT('',#405);
#129=VERTEX_POINT('',#407);
#130=VERTEX_POINT('',#410);
#131=VERTEX_POINT('',#414);
#132=VERTEX_POINT('',#417);
#133=VERTEX_POINT('',#420);
#134=VERTEX_POINT('',#423);
#135=VERTEX_POINT('',#427);
#136=VERTEX_POINT('',#430);
#137=VERTEX_POINT('',#433);
#138=VERTEX_POINT('',#436);
#139=VERTEX_POINT('',#439);
#140=VERTEX_POINT('',#442);
#141=VERTEX_POINT('',#445);
#142=VERTEX_POINT('',#448);
#143=EDGE_CURVE('',#124,#125,#122,.T.);
#144=EDGE_CURVE('',#125,#124,#123,.T.);
#145=EDGE_CURVE('',#126,#126,#42,.T.);
#146=EDGE_CURVE('',#127,#127,#43,.T.);
#147=EDGE_CURVE('',#128,#128,#44,.T.);
#148=EDGE_CURVE('',#129,#129,#45,.T.);
#149=EDGE_CURVE('',#130,#130,#46,.T.);
#150=EDGE_CURVE('',#131,#131,#47,.T.);
#151=EDGE_CURVE('',#132,#132,#48,.T.);
#152=EDGE_CURVE('',#133,#133,#49,.T.);
#153=EDGE_CURVE('',#134,#134,#50,.T.);
#154=EDGE_CURVE('',#135,#135,#51,.T.);
#155=EDGE_CURVE('',#136,#136,#52,.T.);
#156=EDGE_CURVE('',#137,#137,#53,.T.);
#157=EDGE_CURVE('',#138,#138,#54,.T.);
#158=EDGE_CURVE('',#139,#139,#55,.T.);
#159=EDGE_CURVE('',#140,#140,#56,.T.);
#160=EDGE_CURVE('',#141,#141,#57,.T.);
#161=EDGE_CURVE('',#142,#142,#58,.T.);
#162=ORIENTED_EDGE('',*,*,#143,.F.);
#163=ORIENTED_EDGE('',*,*,#144,.F.);
#164=ORIENTED_EDGE('',*,*,#145,.T.);
#165=ORIENTED_EDGE('',*,*,#144,.T.);
#166=ORIENTED_EDGE('',*,*,#143,.T.);
#167=ORIENTED_EDGE('',*,*,#146,.F.);
#168=ORIENTED_EDGE('',*,*,#147,.T.);
#169=ORIENTED_EDGE('',*,*,#148,.T.);
#170=ORIENTED_EDGE('',*,*,#149,.T.);
#171=ORIENTED_EDGE('',*,*,#147,.F.);
#172=ORIENTED_EDGE('',*,*,#148,.F.);
#173=ORIENTED_EDGE('',*,*,#150,.F.);
#174=ORIENTED_EDGE('',*,*,#150,.T.);
#175=ORIENTED_EDGE('',*,*,#151,.F.);
#176=ORIENTED_EDGE('',*,*,#151,.T.);
#177=ORIENTED_EDGE('',*,*,#152,.F.);
#178=ORIENTED_EDGE('',*,*,#152,.T.);
#179=ORIENTED_EDGE('',*,*,#153,.F.);
#180=ORIENTED_EDGE('',*,*,#145,.F.);
#181=ORIENTED_EDGE('',*,*,#153,.T.);
#182=ORIENTED_EDGE('',*,*,#154,.F.);
#183=ORIENTED_EDGE('',*,*,#146,.T.);
#184=ORIENTED_EDGE('',*,*,#154,.T.);
#185=ORIENTED_EDGE('',*,*,#155,.F.);
#186=ORIENTED_EDGE('',*,*,#155,.T.);
#187=ORIENTED_EDGE('',*,*,#156,.F.);
#188=ORIENTED_EDGE('',*,*,#156,.T.);
#189=ORIENTED_EDGE('',*,*,#157,.F.);
#190=ORIENTED_EDGE('',*,*,#157,.T.);
#191=ORIENTED_EDGE('',*,*,#158,.F.);
#192=ORIENTED_EDGE('',*,*,#158,.T.);
#193=ORIENTED_EDGE('',*,*,#159,.F.);
#194=ORIENTED_EDGE('',*,*,#159,.T.);
#195=ORIENTED_EDGE('',*,*,#160,.F.);
#196=ORIENTED_EDGE('',*,*,#160,.T.);
#197=ORIENTED_EDGE('',*,*,#161,.F.);
#198=ORIENTED_EDGE('',*,*,#149,.F.);
#199=ORIENTED_EDGE('',*,*,#161,.T.);
#200=SPHERICAL_SURFACE('',#240,1.625);
#201=ADVANCED_FACE('',(#67),#200,.F.);
#202=ADVANCED_FACE('',(#68,#25,#26),#59,.T.);
#203=ADVANCED_FACE('',(#69,#27),#24,.T.);
#204=ADVANCED_FACE('',(#70,#28),#60,.T.);
#205=ADVANCED_FACE('',(#71),#15,.T.);
#206=ADVANCED_FACE('',(#72),#16,.T.);
#207=ADVANCED_FACE('',(#73,#29),#61,.T.);
#208=ADVANCED_FACE('',(#74,#30),#17,.T.);
#209=ADVANCED_FACE('',(#75,#31),#62,.T.);
#210=ADVANCED_FACE('',(#76,#32),#18,.T.);
#211=ADVANCED_FACE('',(#77,#33),#19,.T.);
#212=ADVANCED_FACE('',(#78,#34),#63,.T.);
#213=ADVANCED_FACE('',(#79,#35),#20,.T.);
#214=ADVANCED_FACE('',(#80,#36),#64,.F.);
#215=ADVANCED_FACE('',(#81,#37),#21,.T.);
#216=ADVANCED_FACE('',(#82,#38),#65,.T.);
#217=ADVANCED_FACE('',(#83,#39),#22,.T.);
#218=ADVANCED_FACE('',(#84,#40),#66,.T.);
#219=ADVANCED_FACE('',(#85,#41),#23,.T.);
#220=CLOSED_SHELL('',(#201,#202,#203,#204,#205,#206,#207,#208,#209,#210,
#211,#212,#213,#214,#215,#216,#217,#218,#219));
#221=DERIVED_UNIT_ELEMENT(#223,0.);
#222=DERIVED_UNIT_ELEMENT(#456,0.);
#223=(
MASS_UNIT()
NAMED_UNIT(*)
SI_UNIT($,.GRAM.)
);
#224=DERIVED_UNIT((#221,#222));
#225=MEASURE_REPRESENTATION_ITEM('density measure',
POSITIVE_RATIO_MEASURE(1.),#224);
#226=PROPERTY_DEFINITION_REPRESENTATION(#231,#228);
#227=PROPERTY_DEFINITION_REPRESENTATION(#232,#229);
#228=REPRESENTATION('material name',(#230),#453);
#229=REPRESENTATION('density',(#225),#453);
#230=DESCRIPTIVE_REPRESENTATION_ITEM('G\X\E9n\X\E9rique','G\X\E9n\X\E9
rique');
#231=PROPERTY_DEFINITION('material property','material name',#463);
#232=PROPERTY_DEFINITION('material property','density of part',#463);
#233=DATE_TIME_ROLE('creation_date');
#234=APPLIED_DATE_AND_TIME_ASSIGNMENT(#235,#233,(#463));
#235=DATE_AND_TIME(#236,#237);
#236=CALENDAR_DATE(2020,29,8);
#237=LOCAL_TIME(12,34,0.,#238);
#238=COORDINATED_UNIVERSAL_TIME_OFFSET(0,0,.BEHIND.);
#239=AXIS2_PLACEMENT_3D('placement',#350,#276,#277);
#240=AXIS2_PLACEMENT_3D('',#351,#278,#279);
#241=AXIS2_PLACEMENT_3D('',#399,#280,#281);
#242=AXIS2_PLACEMENT_3D('',#401,#282,#283);
#243=AXIS2_PLACEMENT_3D('',#403,#284,#285);
#244=AXIS2_PLACEMENT_3D('',#404,#286,#287);
#245=AXIS2_PLACEMENT_3D('',#406,#288,#289);
#246=AXIS2_PLACEMENT_3D('',#408,#290,#291);
#247=AXIS2_PLACEMENT_3D('',#409,#292,#293);
#248=AXIS2_PLACEMENT_3D('',#411,#294,#295);
#249=AXIS2_PLACEMENT_3D('',#412,#296,#297);
#250=AXIS2_PLACEMENT_3D('',#413,#298,#299);
#251=AXIS2_PLACEMENT_3D('',#415,#300,#301);
#252=AXIS2_PLACEMENT_3D('',#416,#302,#303);
#253=AXIS2_PLACEMENT_3D('',#418,#304,#305);
#254=AXIS2_PLACEMENT_3D('',#419,#306,#307);
#255=AXIS2_PLACEMENT_3D('',#421,#308,#309);
#256=AXIS2_PLACEMENT_3D('',#422,#310,#311);
#257=AXIS2_PLACEMENT_3D('',#424,#312,#313);
#258=AXIS2_PLACEMENT_3D('',#425,#314,#315);
#259=AXIS2_PLACEMENT_3D('',#426,#316,#317);
#260=AXIS2_PLACEMENT_3D('',#428,#318,#319);
#261=AXIS2_PLACEMENT_3D('',#429,#320,#321);
#262=AXIS2_PLACEMENT_3D('',#431,#322,#323);
#263=AXIS2_PLACEMENT_3D('',#432,#324,#325);
#264=AXIS2_PLACEMENT_3D('',#434,#326,#327);
#265=AXIS2_PLACEMENT_3D('',#435,#328,#329);
#266=AXIS2_PLACEMENT_3D('',#437,#330,#331);
#267=AXIS2_PLACEMENT_3D('',#438,#332,#333);
#268=AXIS2_PLACEMENT_3D('',#440,#334,#335);
#269=AXIS2_PLACEMENT_3D('',#441,#336,#337);
#270=AXIS2_PLACEMENT_3D('',#443,#338,#339);
#271=AXIS2_PLACEMENT_3D('',#444,#340,#341);
#272=AXIS2_PLACEMENT_3D('',#446,#342,#343);
#273=AXIS2_PLACEMENT_3D('',#447,#344,#345);
#274=AXIS2_PLACEMENT_3D('',#449,#346,#347);
#275=AXIS2_PLACEMENT_3D('',#450,#348,#349);
#276=DIRECTION('axis',(0.,0.,1.));
#277=DIRECTION('refdir',(1.,0.,0.));
#278=DIRECTION('center_axis',(0.,0.,1.));
#279=DIRECTION('ref_axis',(1.,0.,0.));
#280=DIRECTION('center_axis',(6.12255344462402E-17,-1.,0.));
#281=DIRECTION('ref_axis',(1.,0.,0.));
#282=DIRECTION('center_axis',(6.12255344462402E-17,-1.,0.));
#283=DIRECTION('ref_axis',(1.,6.12255344462402E-17,0.));
#284=DIRECTION('center_axis',(6.12255344462402E-17,-1.,0.));
#285=DIRECTION('ref_axis',(1.,6.12255344462402E-17,0.));
#286=DIRECTION('center_axis',(-6.12255344462402E-17,1.,0.));
#287=DIRECTION('ref_axis',(-1.,-2.77428202959526E-17,0.));
#288=DIRECTION('center_axis',(6.12255344462402E-17,-1.,0.));
#289=DIRECTION('ref_axis',(-1.,0.,0.));
#290=DIRECTION('center_axis',(-6.12255344462402E-17,1.,0.));
#291=DIRECTION('ref_axis',(-1.,-6.12255344462402E-17,0.));
#292=DIRECTION('center_axis',(6.12255344462402E-17,-1.,0.));
#293=DIRECTION('ref_axis',(1.,0.,0.));
#294=DIRECTION('center_axis',(6.12255344462402E-17,-1.,0.));
#295=DIRECTION('ref_axis',(1.,6.12255344462402E-17,0.));
#296=DIRECTION('center_axis',(6.12255344462402E-17,-1.,0.));
#297=DIRECTION('ref_axis',(0.,0.,-1.));
#298=DIRECTION('center_axis',(-6.12255344462402E-17,1.,0.));
#299=DIRECTION('ref_axis',(0.,0.,1.));
#300=DIRECTION('center_axis',(6.12255344462402E-17,-1.,0.));
#301=DIRECTION('ref_axis',(1.,6.12255344462402E-17,0.));
#302=DIRECTION('center_axis',(6.12255344462402E-17,-1.,0.));
#303=DIRECTION('ref_axis',(1.,0.,0.));
#304=DIRECTION('center_axis',(6.12255344462402E-17,-1.,0.));
#305=DIRECTION('ref_axis',(1.,6.12255344462402E-17,0.));
#306=DIRECTION('center_axis',(6.12255344462402E-17,-1.,0.));
#307=DIRECTION('ref_axis',(0.,0.,-1.));
#308=DIRECTION('center_axis',(6.12255344462402E-17,-1.,0.));
#309=DIRECTION('ref_axis',(1.,6.12255344462402E-17,0.));
#310=DIRECTION('center_axis',(6.12255344462402E-17,-1.,0.));
#311=DIRECTION('ref_axis',(1.,0.,0.));
#312=DIRECTION('center_axis',(6.12255344462402E-17,-1.,0.));
#313=DIRECTION('ref_axis',(1.,6.12255344462402E-17,0.));
#314=DIRECTION('center_axis',(-6.12255344462402E-17,1.,0.));
#315=DIRECTION('ref_axis',(0.,0.,1.));
#316=DIRECTION('center_axis',(-6.12255344462402E-17,1.,0.));
#317=DIRECTION('ref_axis',(0.,0.,1.));
#318=DIRECTION('center_axis',(6.12255344462402E-17,-1.,0.));
#319=DIRECTION('ref_axis',(1.,6.12255344462402E-17,0.));
#320=DIRECTION('center_axis',(6.12255344462402E-17,-1.,0.));
#321=DIRECTION('ref_axis',(1.,0.,0.));
#322=DIRECTION('center_axis',(6.12255344462402E-17,-1.,0.));
#323=DIRECTION('ref_axis',(1.,6.12255344462402E-17,0.));
#324=DIRECTION('center_axis',(6.12255344462402E-17,-1.,0.));
#325=DIRECTION('ref_axis',(0.,0.,-1.));
#326=DIRECTION('center_axis',(6.12255344462402E-17,-1.,0.));
#327=DIRECTION('ref_axis',(1.,6.12255344462402E-17,0.));
#328=DIRECTION('center_axis',(6.12255344462402E-17,-1.,0.));
#329=DIRECTION('ref_axis',(1.,0.,0.));
#330=DIRECTION('center_axis',(6.12255344462402E-17,-1.,0.));
#331=DIRECTION('ref_axis',(1.,6.12255344462402E-17,0.));
#332=DIRECTION('center_axis',(6.12255344462402E-17,-1.,0.));
#333=DIRECTION('ref_axis',(0.,0.,-1.));
#334=DIRECTION('center_axis',(6.12255344462402E-17,-1.,0.));
#335=DIRECTION('ref_axis',(1.,6.12255344462402E-17,0.));
#336=DIRECTION('center_axis',(6.12255344462402E-17,-1.,0.));
#337=DIRECTION('ref_axis',(1.,0.,0.));
#338=DIRECTION('center_axis',(6.12255344462402E-17,-1.,0.));
#339=DIRECTION('ref_axis',(1.,6.12255344462402E-17,0.));
#340=DIRECTION('center_axis',(6.12255344462402E-17,-1.,0.));
#341=DIRECTION('ref_axis',(0.,0.,-1.));
#342=DIRECTION('center_axis',(6.12255344462402E-17,-1.,0.));
#343=DIRECTION('ref_axis',(1.,6.12255344462402E-17,0.));
#344=DIRECTION('center_axis',(6.12255344462402E-17,-1.,0.));
#345=DIRECTION('ref_axis',(1.,0.,0.));
#346=DIRECTION('center_axis',(6.12255344462402E-17,-1.,0.));
#347=DIRECTION('ref_axis',(1.,6.12255344462402E-17,0.));
#348=DIRECTION('center_axis',(-6.12255344462402E-17,1.,0.));
#349=DIRECTION('ref_axis',(0.,0.,1.));
#350=CARTESIAN_POINT('',(0.,0.,0.));
#351=CARTESIAN_POINT('Origin',(3.77499999999998,17.6,0.));
#352=CARTESIAN_POINT('',(3.14999999999998,19.1,0.));
#353=CARTESIAN_POINT('',(3.14999999999998,16.1,0.));
#354=CARTESIAN_POINT('Ctrl Pts',(3.14999999999998,19.1,1.04083408558608E-16));
#355=CARTESIAN_POINT('Ctrl Pts',(3.14999999999998,19.1,-0.11180590098312));
#356=CARTESIAN_POINT('Ctrl Pts',(3.14353906161392,19.0840246654536,-0.232595924302185));
#357=CARTESIAN_POINT('Ctrl Pts',(3.11793898074739,19.0174091938059,-0.463028058196818));
#358=CARTESIAN_POINT('Ctrl Pts',(3.09897230052961,18.9667956259322,-0.572696975700141));
#359=CARTESIAN_POINT('Ctrl Pts',(3.05592758955044,18.8426196775654,-0.771687018370892));
#360=CARTESIAN_POINT('Ctrl Pts',(3.02925057489155,18.7607485368319,-0.868262500254836));
#361=CARTESIAN_POINT('Ctrl Pts',(2.97586750065855,18.5716873171047,-1.03661475314121));
#362=CARTESIAN_POINT('Ctrl Pts',(2.94920610884482,18.4644760588032,-1.10838189957692));
#363=CARTESIAN_POINT('Ctrl Pts',(2.88051852507691,18.1183309807609,-1.28078891863769));
#364=CARTESIAN_POINT('Ctrl Pts',(2.85198675496687,17.8533349471712,-1.33741225861491));
#365=CARTESIAN_POINT('Ctrl Pts',(2.85198675496687,17.3466650528288,-1.33741225861491));
#366=CARTESIAN_POINT('Ctrl Pts',(2.88051852507691,17.0816690192391,-1.28078891863769));
#367=CARTESIAN_POINT('Ctrl Pts',(2.94920610884482,16.7355239411968,-1.10838189957692));
#368=CARTESIAN_POINT('Ctrl Pts',(2.97586750065855,16.6283126828953,-1.03661475314121));
#369=CARTESIAN_POINT('Ctrl Pts',(3.02925057489155,16.4392514631681,-0.868262500254837));
#370=CARTESIAN_POINT('Ctrl Pts',(3.05592758955044,16.3573803224346,-0.771687018370893));
#371=CARTESIAN_POINT('Ctrl Pts',(3.09897230052961,16.2332043740678,-0.572696975700141));
#372=CARTESIAN_POINT('Ctrl Pts',(3.11793898074739,16.1825908061941,-0.463028058196819));
#373=CARTESIAN_POINT('Ctrl Pts',(3.14353906161392,16.1159753345464,-0.232595924302186));
#374=CARTESIAN_POINT('Ctrl Pts',(3.14999999999998,16.1,-0.11180590098312));
#375=CARTESIAN_POINT('Ctrl Pts',(3.14999999999998,16.1,-3.46944695195361E-17));
#376=CARTESIAN_POINT('Ctrl Pts',(3.14999999999998,16.1,3.46944695195361E-17));
#377=CARTESIAN_POINT('Ctrl Pts',(3.14999999999998,16.1,0.11180590098312));
#378=CARTESIAN_POINT('Ctrl Pts',(3.14353906161392,16.1159753345464,0.232595924302186));
#379=CARTESIAN_POINT('Ctrl Pts',(3.11793898074739,16.1825908061941,0.463028058196819));
#380=CARTESIAN_POINT('Ctrl Pts',(3.09897230052961,16.2332043740678,0.572696975700141));
#381=CARTESIAN_POINT('Ctrl Pts',(3.05592758955044,16.3573803224346,0.771687018370893));
#382=CARTESIAN_POINT('Ctrl Pts',(3.02925057489155,16.4392514631681,0.868262500254837));
#383=CARTESIAN_POINT('Ctrl Pts',(2.97586750065855,16.6283126828953,1.03661475314121));
#384=CARTESIAN_POINT('Ctrl Pts',(2.94920610884482,16.7355239411968,1.10838189957693));
#385=CARTESIAN_POINT('Ctrl Pts',(2.88051852507691,17.0816690192391,1.28078891863769));
#386=CARTESIAN_POINT('Ctrl Pts',(2.85198675496687,17.3466650528288,1.33741225861491));
#387=CARTESIAN_POINT('Ctrl Pts',(2.85198675496687,17.6,1.33741225861491));
#388=CARTESIAN_POINT('Ctrl Pts',(2.85198675496687,17.8533349471712,1.33741225861491));
#389=CARTESIAN_POINT('Ctrl Pts',(2.88051852507691,18.1183309807609,1.28078891863769));
#390=CARTESIAN_POINT('Ctrl Pts',(2.94920610884482,18.4644760588032,1.10838189957692));
#391=CARTESIAN_POINT('Ctrl Pts',(2.97586750065855,18.5716873171047,1.03661475314121));
#392=CARTESIAN_POINT('Ctrl Pts',(3.02925057489155,18.7607485368319,0.868262500254839));
#393=CARTESIAN_POINT('Ctrl Pts',(3.05592758955044,18.8426196775654,0.771687018370892));
#394=CARTESIAN_POINT('Ctrl Pts',(3.09897230052961,18.9667956259322,0.572696975700141));
#395=CARTESIAN_POINT('Ctrl Pts',(3.11793898074739,19.0174091938059,0.463028058196819));
#396=CARTESIAN_POINT('Ctrl Pts',(3.14353906161392,19.0840246654536,0.232595924302186));
#397=CARTESIAN_POINT('Ctrl Pts',(3.14999999999998,19.1,0.11180590098312));
#398=CARTESIAN_POINT('Ctrl Pts',(3.14999999999998,19.1,0.));
#399=CARTESIAN_POINT('Origin',(-1.07603876789267E-15,17.575,0.));
#400=CARTESIAN_POINT('',(3.14999999999997,23.35,0.));
#401=CARTESIAN_POINT('Origin',(-1.42961622931971E-15,23.35,0.));
#402=CARTESIAN_POINT('',(3.14999999999999,11.8,0.));
#403=CARTESIAN_POINT('Origin',(-7.22461306465635E-16,11.8,0.));
#404=CARTESIAN_POINT('Origin',(-9.18383016693629E-18,0.15,0.));
#405=CARTESIAN_POINT('',(1.75,0.3,2.14313189850787E-16));
#406=CARTESIAN_POINT('Origin',(-1.83676603338723E-17,0.3,0.));
#407=CARTESIAN_POINT('',(1.45,8.87770249470483E-17,-1.77573785876366E-16));
#408=CARTESIAN_POINT('Origin',(-2.65778332325439E-31,0.,0.));
#409=CARTESIAN_POINT('Origin',(-2.51024691229585E-16,4.1,0.));
#410=CARTESIAN_POINT('',(1.75,8.2,0.));
#411=CARTESIAN_POINT('Origin',(-5.0204938245917E-16,8.2,0.));
#412=CARTESIAN_POINT('Origin',(0.,0.,0.));
#413=CARTESIAN_POINT('Origin',(3.14999999999998,27.2,0.));
#414=CARTESIAN_POINT('',(3.14999999999998,27.2,0.));
#415=CARTESIAN_POINT('Origin',(-1.66533453693773E-15,27.2,0.));
#416=CARTESIAN_POINT('Origin',(-1.62706857790883E-15,26.575,0.));
#417=CARTESIAN_POINT('',(3.14999999999997,25.95,0.));
#418=CARTESIAN_POINT('Origin',(-1.58880261887993E-15,25.95,0.));
#419=CARTESIAN_POINT('Origin',(3.04999999999998,25.95,0.));
#420=CARTESIAN_POINT('',(3.04999999999998,25.95,0.));
#421=CARTESIAN_POINT('Origin',(-1.58880261887993E-15,25.95,0.));
#422=CARTESIAN_POINT('Origin',(-1.50920942409982E-15,24.65,0.));
#423=CARTESIAN_POINT('',(3.04999999999998,23.35,0.));
#424=CARTESIAN_POINT('Origin',(-1.42961622931971E-15,23.35,0.));
#425=CARTESIAN_POINT('Origin',(3.14999999999997,23.35,0.));
#426=CARTESIAN_POINT('Origin',(3.54999999999999,11.8,0.));
#427=CARTESIAN_POINT('',(3.54999999999999,11.8,0.));
#428=CARTESIAN_POINT('Origin',(-7.22461306465635E-16,11.8,0.));
#429=CARTESIAN_POINT('Origin',(-7.01032369409451E-16,11.45,0.));
#430=CARTESIAN_POINT('',(3.54999999999999,11.1,0.));
#431=CARTESIAN_POINT('Origin',(-6.79603432353267E-16,11.1,0.));
#432=CARTESIAN_POINT('Origin',(2.54999999999999,11.1,0.));
#433=CARTESIAN_POINT('',(2.54999999999999,11.1,0.));
#434=CARTESIAN_POINT('Origin',(-6.79603432353267E-16,11.1,0.));
#435=CARTESIAN_POINT('Origin',(-6.88787262520203E-16,11.25,0.));
#436=CARTESIAN_POINT('',(2.54999999999999,11.4,0.));
#437=CARTESIAN_POINT('Origin',(-6.97971092687139E-16,11.4,0.));
#438=CARTESIAN_POINT('Origin',(1.75,11.4,0.));
#439=CARTESIAN_POINT('',(1.75,11.4,0.));
#440=CARTESIAN_POINT('Origin',(-6.97971092687139E-16,11.4,0.));
#441=CARTESIAN_POINT('Origin',(-6.45929388407835E-16,10.55,0.));
#442=CARTESIAN_POINT('',(1.75,9.7,0.));
#443=CARTESIAN_POINT('Origin',(-5.9388768412853E-16,9.7,0.));
#444=CARTESIAN_POINT('Origin',(1.3,9.7,0.));
#445=CARTESIAN_POINT('',(1.3,9.7,0.));
#446=CARTESIAN_POINT('Origin',(-5.9388768412853E-16,9.7,0.));
#447=CARTESIAN_POINT('Origin',(-5.4796853329385E-16,8.95,0.));
#448=CARTESIAN_POINT('',(1.3,8.2,0.));
#449=CARTESIAN_POINT('Origin',(-5.0204938245917E-16,8.2,0.));
#450=CARTESIAN_POINT('Origin',(1.75,8.2,0.));
#451=UNCERTAINTY_MEASURE_WITH_UNIT(LENGTH_MEASURE(0.01),#455,
'DISTANCE_ACCURACY_VALUE',
'Maximum model space distance between geometric entities at asserted c
onnectivities');
#452=UNCERTAINTY_MEASURE_WITH_UNIT(LENGTH_MEASURE(0.01),#455,
'DISTANCE_ACCURACY_VALUE',
'Maximum model space distance between geometric entities at asserted c
onnectivities');
#453=(
GEOMETRIC_REPRESENTATION_CONTEXT(3)
GLOBAL_UNCERTAINTY_ASSIGNED_CONTEXT((#451))
GLOBAL_UNIT_ASSIGNED_CONTEXT((#455,#458,#457))
REPRESENTATION_CONTEXT('','3D')
);
#454=(
GEOMETRIC_REPRESENTATION_CONTEXT(3)
GLOBAL_UNCERTAINTY_ASSIGNED_CONTEXT((#452))
GLOBAL_UNIT_ASSIGNED_CONTEXT((#455,#458,#457))
REPRESENTATION_CONTEXT('','3D')
);
#455=(
LENGTH_UNIT()
NAMED_UNIT(*)
SI_UNIT(.MILLI.,.METRE.)
);
#456=(
LENGTH_UNIT()
NAMED_UNIT(*)
SI_UNIT(.CENTI.,.METRE.)
);
#457=(
NAMED_UNIT(*)
SI_UNIT($,.STERADIAN.)
SOLID_ANGLE_UNIT()
);
#458=(
NAMED_UNIT(*)
PLANE_ANGLE_UNIT()
SI_UNIT($,.RADIAN.)
);
#459=SHAPE_DEFINITION_REPRESENTATION(#460,#461);
#460=PRODUCT_DEFINITION_SHAPE('',$,#463);
#461=SHAPE_REPRESENTATION('',(#239),#453);
#462=PRODUCT_DEFINITION_CONTEXT('part definition',#467,'design');
#463=PRODUCT_DEFINITION('Axe reglage lunette TCM',
'Axe reglage lunette TCM',#464,#462);
#464=PRODUCT_DEFINITION_FORMATION('',$,#469);
#465=PRODUCT_RELATED_PRODUCT_CATEGORY('Axe reglage lunette TCM',
'Axe reglage lunette TCM',(#469));
#466=APPLICATION_PROTOCOL_DEFINITION('international standard',
'automotive_design',2009,#467);
#467=APPLICATION_CONTEXT(
'Core Data for Automotive Mechanical Design Process');
#468=PRODUCT_CONTEXT('part definition',#467,'mechanical');
#469=PRODUCT('Axe reglage lunette TCM','Axe reglage lunette TCM',$,(#468));
#470=PRESENTATION_STYLE_ASSIGNMENT((#471));
#471=SURFACE_STYLE_USAGE(.BOTH.,#472);
#472=SURFACE_SIDE_STYLE('',(#473));
#473=SURFACE_STYLE_FILL_AREA(#474);
#474=FILL_AREA_STYLE('',(#475));
#475=FILL_AREA_STYLE_COLOUR('',#476);
#476=COLOUR_RGB('',0.749019607843137,0.749019607843137,0.749019607843137);
ENDSEC;
END-ISO-10303-21;
