ISO-10303-21;
HEADER;
/* Generated by software containing ST-Developer
 * from STEP Tools, Inc. (www.steptools.com) 
 */

FILE_DESCRIPTION(
/* description */ (''),
/* implementation_level */ '2;1');

FILE_NAME(
/* name */ 'C:\\Users\\bastien.duong\\Desktop\\TO DELETE\\usineur\\P00
1.stp',
/* time_stamp */ '2021-03-03T18:39:04+01:00',
/* author */ ('bastien.duong'),
/* organization */ (''),
/* preprocessor_version */ 'ST-DEVELOPER v18',
/* originating_system */ 'Autodesk Inventor 2020',
/* authorisation */ '');

FILE_SCHEMA (('AUTOMOTIVE_DESIGN { 1 0 10303 214 3 1 1 }'));
ENDSEC;

DATA;
#10=MECHANICAL_DESIGN_GEOMETRIC_PRESENTATION_REPRESENTATION('',(#13),#617);
#11=SHAPE_REPRESENTATION_RELATIONSHIP('SRR','None',#624,#12);
#12=ADVANCED_BREP_SHAPE_REPRESENTATION('',(#14),#616);
#13=STYLED_ITEM('',(#633),#14);
#14=MANIFOLD_SOLID_BREP('Solid1',#358);
#15=FACE_BOUND('',#58,.T.);
#16=FACE_BOUND('',#61,.T.);
#17=FACE_BOUND('',#67,.T.);
#18=FACE_BOUND('',#73,.T.);
#19=FACE_BOUND('',#76,.T.);
#20=FACE_BOUND('',#78,.T.);
#21=FACE_BOUND('',#80,.T.);
#22=PLANE('',#385);
#23=PLANE('',#386);
#24=PLANE('',#387);
#25=PLANE('',#396);
#26=PLANE('',#397);
#27=PLANE('',#398);
#28=PLANE('',#399);
#29=PLANE('',#400);
#30=PLANE('',#406);
#31=PLANE('',#407);
#32=PLANE('',#408);
#33=PLANE('',#409);
#34=PLANE('',#410);
#35=PLANE('',#411);
#36=FACE_OUTER_BOUND('',#55,.T.);
#37=FACE_OUTER_BOUND('',#56,.T.);
#38=FACE_OUTER_BOUND('',#57,.T.);
#39=FACE_OUTER_BOUND('',#59,.T.);
#40=FACE_OUTER_BOUND('',#60,.T.);
#41=FACE_OUTER_BOUND('',#62,.T.);
#42=FACE_OUTER_BOUND('',#63,.T.);
#43=FACE_OUTER_BOUND('',#64,.T.);
#44=FACE_OUTER_BOUND('',#65,.T.);
#45=FACE_OUTER_BOUND('',#66,.T.);
#46=FACE_OUTER_BOUND('',#68,.T.);
#47=FACE_OUTER_BOUND('',#69,.T.);
#48=FACE_OUTER_BOUND('',#70,.T.);
#49=FACE_OUTER_BOUND('',#71,.T.);
#50=FACE_OUTER_BOUND('',#72,.T.);
#51=FACE_OUTER_BOUND('',#74,.T.);
#52=FACE_OUTER_BOUND('',#75,.T.);
#53=FACE_OUTER_BOUND('',#77,.T.);
#54=FACE_OUTER_BOUND('',#79,.T.);
#55=EDGE_LOOP('',(#240,#241,#242,#243,#244));
#56=EDGE_LOOP('',(#245,#246,#247,#248));
#57=EDGE_LOOP('',(#249,#250,#251,#252));
#58=EDGE_LOOP('',(#253));
#59=EDGE_LOOP('',(#254,#255));
#60=EDGE_LOOP('',(#256,#257));
#61=EDGE_LOOP('',(#258));
#62=EDGE_LOOP('',(#259,#260,#261,#262,#263,#264));
#63=EDGE_LOOP('',(#265,#266,#267,#268));
#64=EDGE_LOOP('',(#269,#270,#271,#272));
#65=EDGE_LOOP('',(#273,#274,#275,#276));
#66=EDGE_LOOP('',(#277,#278,#279,#280));
#67=EDGE_LOOP('',(#281));
#68=EDGE_LOOP('',(#282,#283,#284,#285));
#69=EDGE_LOOP('',(#286,#287,#288,#289));
#70=EDGE_LOOP('',(#290,#291,#292,#293,#294,#295));
#71=EDGE_LOOP('',(#296,#297));
#72=EDGE_LOOP('',(#298,#299,#300,#301));
#73=EDGE_LOOP('',(#302,#303));
#74=EDGE_LOOP('',(#304,#305,#306,#307,#308,#309,#310,#311));
#75=EDGE_LOOP('',(#312,#313,#314,#315));
#76=EDGE_LOOP('',(#316,#317));
#77=EDGE_LOOP('',(#318,#319,#320,#321,#322,#323,#324,#325));
#78=EDGE_LOOP('',(#326,#327));
#79=EDGE_LOOP('',(#328,#329,#330,#331));
#80=EDGE_LOOP('',(#332,#333));
#81=LINE('',#521,#113);
#82=LINE('',#528,#114);
#83=LINE('',#531,#115);
#84=LINE('',#533,#116);
#85=LINE('',#534,#117);
#86=LINE('',#548,#118);
#87=LINE('',#551,#119);
#88=LINE('',#556,#120);
#89=LINE('',#558,#121);
#90=LINE('',#560,#122);
#91=LINE('',#561,#123);
#92=LINE('',#565,#124);
#93=LINE('',#567,#125);
#94=LINE('',#569,#126);
#95=LINE('',#570,#127);
#96=LINE('',#572,#128);
#97=LINE('',#573,#129);
#98=LINE('',#576,#130);
#99=LINE('',#578,#131);
#100=LINE('',#579,#132);
#101=LINE('',#582,#133);
#102=LINE('',#584,#134);
#103=LINE('',#585,#135);
#104=LINE('',#592,#136);
#105=LINE('',#599,#137);
#106=LINE('',#601,#138);
#107=LINE('',#602,#139);
#108=LINE('',#605,#140);
#109=LINE('',#606,#141);
#110=LINE('',#609,#142);
#111=LINE('',#610,#143);
#112=LINE('',#612,#144);
#113=VECTOR('',#420,0.5);
#114=VECTOR('',#427,10.);
#115=VECTOR('',#430,10.);
#116=VECTOR('',#433,10.);
#117=VECTOR('',#434,10.);
#118=VECTOR('',#451,3.55);
#119=VECTOR('',#454,2.55);
#120=VECTOR('',#459,10.);
#121=VECTOR('',#460,10.);
#122=VECTOR('',#461,10.);
#123=VECTOR('',#462,10.);
#124=VECTOR('',#465,10.);
#125=VECTOR('',#466,10.);
#126=VECTOR('',#467,10.);
#127=VECTOR('',#468,10.);
#128=VECTOR('',#471,10.);
#129=VECTOR('',#472,10.);
#130=VECTOR('',#475,10.);
#131=VECTOR('',#476,10.);
#132=VECTOR('',#477,10.);
#133=VECTOR('',#480,10.);
#134=VECTOR('',#481,10.);
#135=VECTOR('',#482,10.);
#136=VECTOR('',#489,1.2295);
#137=VECTOR('',#498,10.);
#138=VECTOR('',#499,10.);
#139=VECTOR('',#500,10.);
#140=VECTOR('',#503,10.);
#141=VECTOR('',#504,10.);
#142=VECTOR('',#507,10.);
#143=VECTOR('',#508,10.);
#144=VECTOR('',#511,10.);
#145=CIRCLE('',#379,0.5);
#146=CIRCLE('',#380,0.5);
#147=CIRCLE('',#381,0.5);
#148=CIRCLE('',#383,2.525);
#149=CIRCLE('',#384,2.525);
#150=CIRCLE('',#388,3.55);
#151=CIRCLE('',#389,3.55);
#152=CIRCLE('',#390,2.55);
#153=CIRCLE('',#392,3.55);
#154=CIRCLE('',#393,3.55);
#155=CIRCLE('',#395,2.55);
#156=CIRCLE('',#402,1.2295);
#157=CIRCLE('',#403,1.2295);
#158=CIRCLE('',#404,1.2295);
#159=CIRCLE('',#405,1.2295);
#160=VERTEX_POINT('',#516);
#161=VERTEX_POINT('',#517);
#162=VERTEX_POINT('',#520);
#163=VERTEX_POINT('',#524);
#164=VERTEX_POINT('',#525);
#165=VERTEX_POINT('',#527);
#166=VERTEX_POINT('',#529);
#167=VERTEX_POINT('',#537);
#168=VERTEX_POINT('',#538);
#169=VERTEX_POINT('',#541);
#170=VERTEX_POINT('',#544);
#171=VERTEX_POINT('',#545);
#172=VERTEX_POINT('',#550);
#173=VERTEX_POINT('',#554);
#174=VERTEX_POINT('',#555);
#175=VERTEX_POINT('',#557);
#176=VERTEX_POINT('',#559);
#177=VERTEX_POINT('',#563);
#178=VERTEX_POINT('',#564);
#179=VERTEX_POINT('',#566);
#180=VERTEX_POINT('',#568);
#181=VERTEX_POINT('',#575);
#182=VERTEX_POINT('',#577);
#183=VERTEX_POINT('',#581);
#184=VERTEX_POINT('',#583);
#185=VERTEX_POINT('',#587);
#186=VERTEX_POINT('',#588);
#187=VERTEX_POINT('',#591);
#188=VERTEX_POINT('',#593);
#189=VERTEX_POINT('',#598);
#190=VERTEX_POINT('',#600);
#191=VERTEX_POINT('',#604);
#192=VERTEX_POINT('',#608);
#193=EDGE_CURVE('',#160,#161,#145,.T.);
#194=EDGE_CURVE('',#161,#160,#146,.T.);
#195=EDGE_CURVE('',#161,#162,#81,.T.);
#196=EDGE_CURVE('',#162,#162,#147,.T.);
#197=EDGE_CURVE('',#163,#164,#148,.T.);
#198=EDGE_CURVE('',#163,#165,#82,.T.);
#199=EDGE_CURVE('',#165,#166,#149,.T.);
#200=EDGE_CURVE('',#164,#166,#83,.T.);
#201=EDGE_CURVE('',#164,#163,#84,.T.);
#202=EDGE_CURVE('',#166,#165,#85,.T.);
#203=EDGE_CURVE('',#167,#168,#150,.T.);
#204=EDGE_CURVE('',#168,#167,#151,.T.);
#205=EDGE_CURVE('',#169,#169,#152,.T.);
#206=EDGE_CURVE('',#170,#171,#153,.T.);
#207=EDGE_CURVE('',#171,#170,#154,.T.);
#208=EDGE_CURVE('',#171,#168,#86,.T.);
#209=EDGE_CURVE('',#169,#172,#87,.T.);
#210=EDGE_CURVE('',#172,#172,#155,.T.);
#211=EDGE_CURVE('',#173,#174,#88,.T.);
#212=EDGE_CURVE('',#173,#175,#89,.T.);
#213=EDGE_CURVE('',#176,#175,#90,.T.);
#214=EDGE_CURVE('',#174,#176,#91,.T.);
#215=EDGE_CURVE('',#177,#178,#92,.T.);
#216=EDGE_CURVE('',#177,#179,#93,.T.);
#217=EDGE_CURVE('',#180,#179,#94,.T.);
#218=EDGE_CURVE('',#178,#180,#95,.T.);
#219=EDGE_CURVE('',#175,#180,#96,.T.);
#220=EDGE_CURVE('',#179,#176,#97,.T.);
#221=EDGE_CURVE('',#174,#181,#98,.T.);
#222=EDGE_CURVE('',#182,#181,#99,.T.);
#223=EDGE_CURVE('',#182,#173,#100,.T.);
#224=EDGE_CURVE('',#178,#183,#101,.T.);
#225=EDGE_CURVE('',#184,#183,#102,.T.);
#226=EDGE_CURVE('',#184,#177,#103,.T.);
#227=EDGE_CURVE('',#185,#186,#156,.T.);
#228=EDGE_CURVE('',#186,#185,#157,.T.);
#229=EDGE_CURVE('',#186,#187,#104,.T.);
#230=EDGE_CURVE('',#188,#187,#158,.T.);
#231=EDGE_CURVE('',#187,#188,#159,.T.);
#232=EDGE_CURVE('',#183,#189,#105,.T.);
#233=EDGE_CURVE('',#189,#190,#106,.T.);
#234=EDGE_CURVE('',#190,#184,#107,.T.);
#235=EDGE_CURVE('',#191,#182,#108,.T.);
#236=EDGE_CURVE('',#189,#191,#109,.T.);
#237=EDGE_CURVE('',#192,#191,#110,.T.);
#238=EDGE_CURVE('',#190,#192,#111,.T.);
#239=EDGE_CURVE('',#181,#192,#112,.T.);
#240=ORIENTED_EDGE('',*,*,#193,.F.);
#241=ORIENTED_EDGE('',*,*,#194,.F.);
#242=ORIENTED_EDGE('',*,*,#195,.T.);
#243=ORIENTED_EDGE('',*,*,#196,.F.);
#244=ORIENTED_EDGE('',*,*,#195,.F.);
#245=ORIENTED_EDGE('',*,*,#197,.F.);
#246=ORIENTED_EDGE('',*,*,#198,.T.);
#247=ORIENTED_EDGE('',*,*,#199,.T.);
#248=ORIENTED_EDGE('',*,*,#200,.F.);
#249=ORIENTED_EDGE('',*,*,#201,.F.);
#250=ORIENTED_EDGE('',*,*,#200,.T.);
#251=ORIENTED_EDGE('',*,*,#202,.T.);
#252=ORIENTED_EDGE('',*,*,#198,.F.);
#253=ORIENTED_EDGE('',*,*,#196,.T.);
#254=ORIENTED_EDGE('',*,*,#202,.F.);
#255=ORIENTED_EDGE('',*,*,#199,.F.);
#256=ORIENTED_EDGE('',*,*,#203,.T.);
#257=ORIENTED_EDGE('',*,*,#204,.T.);
#258=ORIENTED_EDGE('',*,*,#205,.F.);
#259=ORIENTED_EDGE('',*,*,#206,.F.);
#260=ORIENTED_EDGE('',*,*,#207,.F.);
#261=ORIENTED_EDGE('',*,*,#208,.T.);
#262=ORIENTED_EDGE('',*,*,#203,.F.);
#263=ORIENTED_EDGE('',*,*,#204,.F.);
#264=ORIENTED_EDGE('',*,*,#208,.F.);
#265=ORIENTED_EDGE('',*,*,#205,.T.);
#266=ORIENTED_EDGE('',*,*,#209,.T.);
#267=ORIENTED_EDGE('',*,*,#210,.F.);
#268=ORIENTED_EDGE('',*,*,#209,.F.);
#269=ORIENTED_EDGE('',*,*,#211,.F.);
#270=ORIENTED_EDGE('',*,*,#212,.T.);
#271=ORIENTED_EDGE('',*,*,#213,.F.);
#272=ORIENTED_EDGE('',*,*,#214,.F.);
#273=ORIENTED_EDGE('',*,*,#215,.F.);
#274=ORIENTED_EDGE('',*,*,#216,.T.);
#275=ORIENTED_EDGE('',*,*,#217,.F.);
#276=ORIENTED_EDGE('',*,*,#218,.F.);
#277=ORIENTED_EDGE('',*,*,#219,.T.);
#278=ORIENTED_EDGE('',*,*,#217,.T.);
#279=ORIENTED_EDGE('',*,*,#220,.T.);
#280=ORIENTED_EDGE('',*,*,#213,.T.);
#281=ORIENTED_EDGE('',*,*,#210,.T.);
#282=ORIENTED_EDGE('',*,*,#211,.T.);
#283=ORIENTED_EDGE('',*,*,#221,.T.);
#284=ORIENTED_EDGE('',*,*,#222,.F.);
#285=ORIENTED_EDGE('',*,*,#223,.T.);
#286=ORIENTED_EDGE('',*,*,#215,.T.);
#287=ORIENTED_EDGE('',*,*,#224,.T.);
#288=ORIENTED_EDGE('',*,*,#225,.F.);
#289=ORIENTED_EDGE('',*,*,#226,.T.);
#290=ORIENTED_EDGE('',*,*,#227,.F.);
#291=ORIENTED_EDGE('',*,*,#228,.F.);
#292=ORIENTED_EDGE('',*,*,#229,.T.);
#293=ORIENTED_EDGE('',*,*,#230,.F.);
#294=ORIENTED_EDGE('',*,*,#231,.F.);
#295=ORIENTED_EDGE('',*,*,#229,.F.);
#296=ORIENTED_EDGE('',*,*,#230,.T.);
#297=ORIENTED_EDGE('',*,*,#231,.T.);
#298=ORIENTED_EDGE('',*,*,#225,.T.);
#299=ORIENTED_EDGE('',*,*,#232,.T.);
#300=ORIENTED_EDGE('',*,*,#233,.T.);
#301=ORIENTED_EDGE('',*,*,#234,.T.);
#302=ORIENTED_EDGE('',*,*,#227,.T.);
#303=ORIENTED_EDGE('',*,*,#228,.T.);
#304=ORIENTED_EDGE('',*,*,#223,.F.);
#305=ORIENTED_EDGE('',*,*,#235,.F.);
#306=ORIENTED_EDGE('',*,*,#236,.F.);
#307=ORIENTED_EDGE('',*,*,#232,.F.);
#308=ORIENTED_EDGE('',*,*,#224,.F.);
#309=ORIENTED_EDGE('',*,*,#218,.T.);
#310=ORIENTED_EDGE('',*,*,#219,.F.);
#311=ORIENTED_EDGE('',*,*,#212,.F.);
#312=ORIENTED_EDGE('',*,*,#236,.T.);
#313=ORIENTED_EDGE('',*,*,#237,.F.);
#314=ORIENTED_EDGE('',*,*,#238,.F.);
#315=ORIENTED_EDGE('',*,*,#233,.F.);
#316=ORIENTED_EDGE('',*,*,#206,.T.);
#317=ORIENTED_EDGE('',*,*,#207,.T.);
#318=ORIENTED_EDGE('',*,*,#238,.T.);
#319=ORIENTED_EDGE('',*,*,#239,.F.);
#320=ORIENTED_EDGE('',*,*,#221,.F.);
#321=ORIENTED_EDGE('',*,*,#214,.T.);
#322=ORIENTED_EDGE('',*,*,#220,.F.);
#323=ORIENTED_EDGE('',*,*,#216,.F.);
#324=ORIENTED_EDGE('',*,*,#226,.F.);
#325=ORIENTED_EDGE('',*,*,#234,.F.);
#326=ORIENTED_EDGE('',*,*,#193,.T.);
#327=ORIENTED_EDGE('',*,*,#194,.T.);
#328=ORIENTED_EDGE('',*,*,#222,.T.);
#329=ORIENTED_EDGE('',*,*,#239,.T.);
#330=ORIENTED_EDGE('',*,*,#237,.T.);
#331=ORIENTED_EDGE('',*,*,#235,.T.);
#332=ORIENTED_EDGE('',*,*,#197,.T.);
#333=ORIENTED_EDGE('',*,*,#201,.T.);
#334=CYLINDRICAL_SURFACE('',#378,0.5);
#335=CYLINDRICAL_SURFACE('',#382,2.525);
#336=CYLINDRICAL_SURFACE('',#391,3.55);
#337=CYLINDRICAL_SURFACE('',#394,2.55);
#338=CYLINDRICAL_SURFACE('',#401,1.2295);
#339=ADVANCED_FACE('',(#36),#334,.F.);
#340=ADVANCED_FACE('',(#37),#335,.F.);
#341=ADVANCED_FACE('',(#38,#15),#22,.F.);
#342=ADVANCED_FACE('',(#39),#23,.T.);
#343=ADVANCED_FACE('',(#40,#16),#24,.T.);
#344=ADVANCED_FACE('',(#41),#336,.F.);
#345=ADVANCED_FACE('',(#42),#337,.F.);
#346=ADVANCED_FACE('',(#43),#25,.T.);
#347=ADVANCED_FACE('',(#44),#26,.T.);
#348=ADVANCED_FACE('',(#45,#17),#27,.T.);
#349=ADVANCED_FACE('',(#46),#28,.T.);
#350=ADVANCED_FACE('',(#47),#29,.T.);
#351=ADVANCED_FACE('',(#48),#338,.F.);
#352=ADVANCED_FACE('',(#49),#30,.T.);
#353=ADVANCED_FACE('',(#50,#18),#31,.T.);
#354=ADVANCED_FACE('',(#51),#32,.T.);
#355=ADVANCED_FACE('',(#52,#19),#33,.T.);
#356=ADVANCED_FACE('',(#53,#20),#34,.T.);
#357=ADVANCED_FACE('',(#54,#21),#35,.T.);
#358=CLOSED_SHELL('',(#339,#340,#341,#342,#343,#344,#345,#346,#347,#348,
#349,#350,#351,#352,#353,#354,#355,#356,#357));
#359=DERIVED_UNIT_ELEMENT(#361,1.);
#360=DERIVED_UNIT_ELEMENT(#619,3.);
#361=(
MASS_UNIT()
NAMED_UNIT(*)
SI_UNIT($,.GRAM.)
);
#362=DERIVED_UNIT((#359,#360));
#363=MEASURE_REPRESENTATION_ITEM('density measure',
POSITIVE_RATIO_MEASURE(2.7),#362);
#364=PROPERTY_DEFINITION_REPRESENTATION(#369,#366);
#365=PROPERTY_DEFINITION_REPRESENTATION(#370,#367);
#366=REPRESENTATION('material name',(#368),#616);
#367=REPRESENTATION('density',(#363),#616);
#368=DESCRIPTIVE_REPRESENTATION_ITEM('Aluminum 6061','Aluminum 6061');
#369=PROPERTY_DEFINITION('material property','material name',#626);
#370=PROPERTY_DEFINITION('material property','density of part',#626);
#371=DATE_TIME_ROLE('creation_date');
#372=APPLIED_DATE_AND_TIME_ASSIGNMENT(#373,#371,(#626));
#373=DATE_AND_TIME(#374,#375);
#374=CALENDAR_DATE(2021,4,2);
#375=LOCAL_TIME(1,13,28.,#376);
#376=COORDINATED_UNIVERSAL_TIME_OFFSET(0,0,.BEHIND.);
#377=AXIS2_PLACEMENT_3D('placement',#514,#412,#413);
#378=AXIS2_PLACEMENT_3D('',#515,#414,#415);
#379=AXIS2_PLACEMENT_3D('',#518,#416,#417);
#380=AXIS2_PLACEMENT_3D('',#519,#418,#419);
#381=AXIS2_PLACEMENT_3D('',#522,#421,#422);
#382=AXIS2_PLACEMENT_3D('',#523,#423,#424);
#383=AXIS2_PLACEMENT_3D('',#526,#425,#426);
#384=AXIS2_PLACEMENT_3D('',#530,#428,#429);
#385=AXIS2_PLACEMENT_3D('',#532,#431,#432);
#386=AXIS2_PLACEMENT_3D('',#535,#435,#436);
#387=AXIS2_PLACEMENT_3D('',#536,#437,#438);
#388=AXIS2_PLACEMENT_3D('',#539,#439,#440);
#389=AXIS2_PLACEMENT_3D('',#540,#441,#442);
#390=AXIS2_PLACEMENT_3D('',#542,#443,#444);
#391=AXIS2_PLACEMENT_3D('',#543,#445,#446);
#392=AXIS2_PLACEMENT_3D('',#546,#447,#448);
#393=AXIS2_PLACEMENT_3D('',#547,#449,#450);
#394=AXIS2_PLACEMENT_3D('',#549,#452,#453);
#395=AXIS2_PLACEMENT_3D('',#552,#455,#456);
#396=AXIS2_PLACEMENT_3D('',#553,#457,#458);
#397=AXIS2_PLACEMENT_3D('',#562,#463,#464);
#398=AXIS2_PLACEMENT_3D('',#571,#469,#470);
#399=AXIS2_PLACEMENT_3D('',#574,#473,#474);
#400=AXIS2_PLACEMENT_3D('',#580,#478,#479);
#401=AXIS2_PLACEMENT_3D('',#586,#483,#484);
#402=AXIS2_PLACEMENT_3D('',#589,#485,#486);
#403=AXIS2_PLACEMENT_3D('',#590,#487,#488);
#404=AXIS2_PLACEMENT_3D('',#594,#490,#491);
#405=AXIS2_PLACEMENT_3D('',#595,#492,#493);
#406=AXIS2_PLACEMENT_3D('',#596,#494,#495);
#407=AXIS2_PLACEMENT_3D('',#597,#496,#497);
#408=AXIS2_PLACEMENT_3D('',#603,#501,#502);
#409=AXIS2_PLACEMENT_3D('',#607,#505,#506);
#410=AXIS2_PLACEMENT_3D('',#611,#509,#510);
#411=AXIS2_PLACEMENT_3D('',#613,#512,#513);
#412=DIRECTION('axis',(0.,0.,1.));
#413=DIRECTION('refdir',(1.,0.,0.));
#414=DIRECTION('center_axis',(0.,-3.46944695195361E-16,1.));
#415=DIRECTION('ref_axis',(1.,0.,0.));
#416=DIRECTION('center_axis',(0.,3.46944695195361E-16,-1.));
#417=DIRECTION('ref_axis',(1.,0.,0.));
#418=DIRECTION('center_axis',(0.,3.46944695195361E-16,-1.));
#419=DIRECTION('ref_axis',(1.,0.,0.));
#420=DIRECTION('',(0.,3.46944695195361E-16,-1.));
#421=DIRECTION('center_axis',(0.,0.,1.));
#422=DIRECTION('ref_axis',(1.,0.,0.));
#423=DIRECTION('center_axis',(-1.,0.,0.));
#424=DIRECTION('ref_axis',(0.,0.,-1.));
#425=DIRECTION('center_axis',(-1.,0.,0.));
#426=DIRECTION('ref_axis',(0.,0.,-1.));
#427=DIRECTION('',(-1.,0.,0.));
#428=DIRECTION('center_axis',(-1.,0.,0.));
#429=DIRECTION('ref_axis',(0.,0.,-1.));
#430=DIRECTION('',(-1.,0.,0.));
#431=DIRECTION('center_axis',(0.,0.,1.));
#432=DIRECTION('ref_axis',(0.,1.,0.));
#433=DIRECTION('',(0.,1.,0.));
#434=DIRECTION('',(0.,1.,0.));
#435=DIRECTION('center_axis',(1.,0.,0.));
#436=DIRECTION('ref_axis',(0.,0.,-1.));
#437=DIRECTION('center_axis',(0.,-1.,0.));
#438=DIRECTION('ref_axis',(1.,0.,0.));
#439=DIRECTION('center_axis',(0.,-1.,0.));
#440=DIRECTION('ref_axis',(1.,0.,0.));
#441=DIRECTION('center_axis',(0.,-1.,0.));
#442=DIRECTION('ref_axis',(1.,0.,0.));
#443=DIRECTION('center_axis',(0.,-1.,0.));
#444=DIRECTION('ref_axis',(1.,0.,0.));
#445=DIRECTION('center_axis',(0.,-1.,0.));
#446=DIRECTION('ref_axis',(1.,0.,0.));
#447=DIRECTION('center_axis',(0.,1.,0.));
#448=DIRECTION('ref_axis',(1.,0.,0.));
#449=DIRECTION('center_axis',(0.,1.,0.));
#450=DIRECTION('ref_axis',(1.,0.,0.));
#451=DIRECTION('',(0.,1.,0.));
#452=DIRECTION('center_axis',(0.,-1.,0.));
#453=DIRECTION('ref_axis',(1.,0.,0.));
#454=DIRECTION('',(0.,1.,0.));
#455=DIRECTION('center_axis',(0.,-1.,0.));
#456=DIRECTION('ref_axis',(1.,0.,0.));
#457=DIRECTION('center_axis',(1.,0.,-5.55111512312578E-16));
#458=DIRECTION('ref_axis',(-5.55111512312578E-16,0.,-1.));
#459=DIRECTION('',(5.55111512312578E-16,0.,1.));
#460=DIRECTION('',(0.,1.,0.));
#461=DIRECTION('',(-5.55111512312578E-16,0.,-1.));
#462=DIRECTION('',(0.,1.,0.));
#463=DIRECTION('center_axis',(-1.,0.,2.77555756156289E-16));
#464=DIRECTION('ref_axis',(2.77555756156289E-16,0.,1.));
#465=DIRECTION('',(-2.77555756156289E-16,0.,-1.));
#466=DIRECTION('',(0.,1.,0.));
#467=DIRECTION('',(2.77555756156289E-16,0.,1.));
#468=DIRECTION('',(0.,1.,0.));
#469=DIRECTION('center_axis',(0.,1.,0.));
#470=DIRECTION('ref_axis',(0.,0.,1.));
#471=DIRECTION('',(-1.,0.,0.));
#472=DIRECTION('',(1.,0.,0.));
#473=DIRECTION('center_axis',(0.,1.,0.));
#474=DIRECTION('ref_axis',(0.,0.,1.));
#475=DIRECTION('',(1.,0.,0.));
#476=DIRECTION('',(0.,0.,1.));
#477=DIRECTION('',(-1.,0.,0.));
#478=DIRECTION('center_axis',(0.,1.,0.));
#479=DIRECTION('ref_axis',(0.,0.,1.));
#480=DIRECTION('',(-1.,0.,0.));
#481=DIRECTION('',(0.,0.,-1.));
#482=DIRECTION('',(1.,0.,0.));
#483=DIRECTION('center_axis',(-1.,0.,0.));
#484=DIRECTION('ref_axis',(0.,0.,1.));
#485=DIRECTION('center_axis',(1.,0.,0.));
#486=DIRECTION('ref_axis',(0.,0.,1.));
#487=DIRECTION('center_axis',(1.,0.,0.));
#488=DIRECTION('ref_axis',(0.,0.,1.));
#489=DIRECTION('',(1.,0.,0.));
#490=DIRECTION('center_axis',(-1.,0.,0.));
#491=DIRECTION('ref_axis',(0.,0.,1.));
#492=DIRECTION('center_axis',(-1.,0.,0.));
#493=DIRECTION('ref_axis',(0.,0.,1.));
#494=DIRECTION('center_axis',(-1.,0.,0.));
#495=DIRECTION('ref_axis',(0.,0.,1.));
#496=DIRECTION('center_axis',(-1.,0.,0.));
#497=DIRECTION('ref_axis',(0.,0.,1.));
#498=DIRECTION('',(0.,-1.,-2.08166817117217E-16));
#499=DIRECTION('',(0.,0.,1.));
#500=DIRECTION('',(0.,1.,3.46944695195361E-16));
#501=DIRECTION('center_axis',(0.,2.08166817117217E-16,-1.));
#502=DIRECTION('ref_axis',(0.,1.,2.08166817117217E-16));
#503=DIRECTION('',(0.,1.,2.08166817117217E-16));
#504=DIRECTION('',(1.,0.,0.));
#505=DIRECTION('center_axis',(0.,-1.,0.));
#506=DIRECTION('ref_axis',(0.,0.,-1.));
#507=DIRECTION('',(0.,0.,-1.));
#508=DIRECTION('',(1.,0.,0.));
#509=DIRECTION('center_axis',(0.,-3.46944695195361E-16,1.));
#510=DIRECTION('ref_axis',(0.,-1.,-3.46944695195361E-16));
#511=DIRECTION('',(0.,-1.,-3.46944695195361E-16));
#512=DIRECTION('center_axis',(1.,0.,0.));
#513=DIRECTION('ref_axis',(0.,0.,-1.));
#514=CARTESIAN_POINT('',(0.,0.,0.));
#515=CARTESIAN_POINT('Origin',(7.4,-5.89805981832114E-16,2.5));
#516=CARTESIAN_POINT('',(7.9,-1.11022302462516E-15,4.));
#517=CARTESIAN_POINT('',(6.9,-1.17145536458252E-15,4.));
#518=CARTESIAN_POINT('Origin',(7.4,-1.11022302462516E-15,4.));
#519=CARTESIAN_POINT('Origin',(7.4,-1.11022302462516E-15,4.));
#520=CARTESIAN_POINT('',(6.9,-4.94913208951569E-16,2.05));
#521=CARTESIAN_POINT('',(6.9,-6.51038321789482E-16,2.5));
#522=CARTESIAN_POINT('Origin',(7.4,-4.33680868994202E-16,2.05));
#523=CARTESIAN_POINT('Origin',(10.,0.,0.));
#524=CARTESIAN_POINT('',(10.,1.47415229878056,2.05));
#525=CARTESIAN_POINT('',(10.,-1.47415229878056,2.05));
#526=CARTESIAN_POINT('Origin',(10.,0.,0.));
#527=CARTESIAN_POINT('',(4.5,1.47415229878056,2.05));
#528=CARTESIAN_POINT('',(10.,1.47415229878056,2.05));
#529=CARTESIAN_POINT('',(4.5,-1.47415229878056,2.05));
#530=CARTESIAN_POINT('Origin',(4.5,0.,0.));
#531=CARTESIAN_POINT('',(10.,-1.47415229878056,2.05));
#532=CARTESIAN_POINT('Origin',(10.,-1.47415229878056,2.05));
#533=CARTESIAN_POINT('',(10.,-0.737076149390278,2.05));
#534=CARTESIAN_POINT('',(4.5,1.47415229878056,2.05));
#535=CARTESIAN_POINT('Origin',(4.5,0.,-0.2375));
#536=CARTESIAN_POINT('Origin',(0.,0.600000000000001,-5.55111512312578E-16));
#537=CARTESIAN_POINT('',(3.55,0.600000000000001,-5.55111512312578E-16));
#538=CARTESIAN_POINT('',(-3.55,0.600000000000001,-9.89861126009889E-16));
#539=CARTESIAN_POINT('Origin',(0.,0.600000000000001,-5.55111512312578E-16));
#540=CARTESIAN_POINT('Origin',(0.,0.600000000000001,-5.55111512312578E-16));
#541=CARTESIAN_POINT('',(-2.55,0.600000000000001,-8.67396446095153E-16));
#542=CARTESIAN_POINT('Origin',(0.,0.600000000000001,-5.55111512312578E-16));
#543=CARTESIAN_POINT('Origin',(0.,-1.7,-5.55111512312578E-16));
#544=CARTESIAN_POINT('',(3.55,-4.,-5.55111512312578E-16));
#545=CARTESIAN_POINT('',(-3.55,-4.,-9.89861126009889E-16));
#546=CARTESIAN_POINT('Origin',(0.,-4.,-5.55111512312578E-16));
#547=CARTESIAN_POINT('Origin',(0.,-4.,-5.55111512312578E-16));
#548=CARTESIAN_POINT('',(-3.55,-1.7,-9.89861126009889E-16));
#549=CARTESIAN_POINT('Origin',(0.,20.9048188108245,-5.55111512312578E-16));
#550=CARTESIAN_POINT('',(-2.55,8.5,-8.67396446095153E-16));
#551=CARTESIAN_POINT('',(-2.55,20.9048188108245,-8.67396446095153E-16));
#552=CARTESIAN_POINT('Origin',(0.,8.5,-5.55111512312578E-16));
#553=CARTESIAN_POINT('Origin',(4.5,4.,4.));
#554=CARTESIAN_POINT('',(4.5,4.,-4.));
#555=CARTESIAN_POINT('',(4.5,4.,4.));
#556=CARTESIAN_POINT('',(4.5,4.,4.16333634234434E-16));
#557=CARTESIAN_POINT('',(4.5,8.5,-4.));
#558=CARTESIAN_POINT('',(4.5,4.,-4.));
#559=CARTESIAN_POINT('',(4.5,8.5,4.));
#560=CARTESIAN_POINT('',(4.5,8.5,4.));
#561=CARTESIAN_POINT('',(4.5,4.,4.));
#562=CARTESIAN_POINT('Origin',(-4.5,4.,-4.));
#563=CARTESIAN_POINT('',(-4.5,4.,4.));
#564=CARTESIAN_POINT('',(-4.5,4.,-4.));
#565=CARTESIAN_POINT('',(-4.5,4.,-4.));
#566=CARTESIAN_POINT('',(-4.5,8.5,4.));
#567=CARTESIAN_POINT('',(-4.5,4.,4.));
#568=CARTESIAN_POINT('',(-4.5,8.5,-4.));
#569=CARTESIAN_POINT('',(-4.5,8.5,-4.));
#570=CARTESIAN_POINT('',(-4.5,4.,-4.));
#571=CARTESIAN_POINT('Origin',(0.,8.5,2.22044604925031E-15));
#572=CARTESIAN_POINT('',(10.,8.5,-4.));
#573=CARTESIAN_POINT('',(-10.,8.5,4.));
#574=CARTESIAN_POINT('Origin',(0.,4.,-4.));
#575=CARTESIAN_POINT('',(10.,4.,4.));
#576=CARTESIAN_POINT('',(0.,4.,4.));
#577=CARTESIAN_POINT('',(10.,4.,-4.));
#578=CARTESIAN_POINT('',(10.,4.,-4.));
#579=CARTESIAN_POINT('',(0.,4.,-4.));
#580=CARTESIAN_POINT('Origin',(0.,4.,-4.));
#581=CARTESIAN_POINT('',(-10.,4.,-4.));
#582=CARTESIAN_POINT('',(0.,4.,-4.));
#583=CARTESIAN_POINT('',(-10.,4.,4.));
#584=CARTESIAN_POINT('',(-10.,4.,-4.));
#585=CARTESIAN_POINT('',(0.,4.,4.));
#586=CARTESIAN_POINT('Origin',(-7.25,5.55111512312578E-16,2.77555756156289E-16));
#587=CARTESIAN_POINT('',(-10.,5.55111512312578E-16,1.2295));
#588=CARTESIAN_POINT('',(-10.,4.04541188357411E-16,-1.2295));
#589=CARTESIAN_POINT('Origin',(-10.,5.55111512312578E-16,2.77555756156289E-16));
#590=CARTESIAN_POINT('Origin',(-10.,5.55111512312578E-16,2.77555756156289E-16));
#591=CARTESIAN_POINT('',(-4.5,4.04541188357411E-16,-1.2295));
#592=CARTESIAN_POINT('',(-7.25,4.04541188357411E-16,-1.2295));
#593=CARTESIAN_POINT('',(-4.5,5.55111512312578E-16,1.2295));
#594=CARTESIAN_POINT('Origin',(-4.5,5.55111512312578E-16,2.77555756156289E-16));
#595=CARTESIAN_POINT('Origin',(-4.5,5.55111512312578E-16,2.77555756156289E-16));
#596=CARTESIAN_POINT('Origin',(-4.5,5.55111512312578E-16,2.77555756156289E-16));
#597=CARTESIAN_POINT('Origin',(-10.,1.11022302462516E-15,1.11022302462516E-15));
#598=CARTESIAN_POINT('',(-10.,-4.,-4.));
#599=CARTESIAN_POINT('',(-10.,-4.,-4.));
#600=CARTESIAN_POINT('',(-10.,-4.,4.));
#601=CARTESIAN_POINT('',(-10.,-4.,4.));
#602=CARTESIAN_POINT('',(-10.,4.,4.));
#603=CARTESIAN_POINT('Origin',(0.,-4.,-4.));
#604=CARTESIAN_POINT('',(10.,-4.,-4.));
#605=CARTESIAN_POINT('',(10.,-4.,-4.));
#606=CARTESIAN_POINT('',(0.,-4.,-4.));
#607=CARTESIAN_POINT('Origin',(0.,-4.,4.));
#608=CARTESIAN_POINT('',(10.,-4.,4.));
#609=CARTESIAN_POINT('',(10.,-4.,4.));
#610=CARTESIAN_POINT('',(0.,-4.,4.));
#611=CARTESIAN_POINT('Origin',(0.,4.,4.));
#612=CARTESIAN_POINT('',(10.,4.,4.));
#613=CARTESIAN_POINT('Origin',(10.,1.11022302462516E-15,1.11022302462516E-15));
#614=UNCERTAINTY_MEASURE_WITH_UNIT(LENGTH_MEASURE(0.01),#618,
'DISTANCE_ACCURACY_VALUE',
'Maximum model space distance between geometric entities at asserted c
onnectivities');
#615=UNCERTAINTY_MEASURE_WITH_UNIT(LENGTH_MEASURE(0.01),#618,
'DISTANCE_ACCURACY_VALUE',
'Maximum model space distance between geometric entities at asserted c
onnectivities');
#616=(
GEOMETRIC_REPRESENTATION_CONTEXT(3)
GLOBAL_UNCERTAINTY_ASSIGNED_CONTEXT((#614))
GLOBAL_UNIT_ASSIGNED_CONTEXT((#618,#620,#621))
REPRESENTATION_CONTEXT('','3D')
);
#617=(
GEOMETRIC_REPRESENTATION_CONTEXT(3)
GLOBAL_UNCERTAINTY_ASSIGNED_CONTEXT((#615))
GLOBAL_UNIT_ASSIGNED_CONTEXT((#618,#620,#621))
REPRESENTATION_CONTEXT('','3D')
);
#618=(
LENGTH_UNIT()
NAMED_UNIT(*)
SI_UNIT(.MILLI.,.METRE.)
);
#619=(
LENGTH_UNIT()
NAMED_UNIT(*)
SI_UNIT(.CENTI.,.METRE.)
);
#620=(
NAMED_UNIT(*)
PLANE_ANGLE_UNIT()
SI_UNIT($,.RADIAN.)
);
#621=(
NAMED_UNIT(*)
SI_UNIT($,.STERADIAN.)
SOLID_ANGLE_UNIT()
);
#622=SHAPE_DEFINITION_REPRESENTATION(#623,#624);
#623=PRODUCT_DEFINITION_SHAPE('',$,#626);
#624=SHAPE_REPRESENTATION('',(#377),#616);
#625=PRODUCT_DEFINITION_CONTEXT('part definition',#630,'design');
#626=PRODUCT_DEFINITION('P001','arbre pivot moteur (v2.0)',#627,#625);
#627=PRODUCT_DEFINITION_FORMATION('',$,#632);
#628=PRODUCT_RELATED_PRODUCT_CATEGORY('arbre pivot moteur (v2.0)',
'arbre pivot moteur (v2.0)',(#632));
#629=APPLICATION_PROTOCOL_DEFINITION('international standard',
'automotive_design',2009,#630);
#630=APPLICATION_CONTEXT(
'Core Data for Automotive Mechanical Design Process');
#631=PRODUCT_CONTEXT('part definition',#630,'mechanical');
#632=PRODUCT('P001','arbre pivot moteur (v2.0)',$,(#631));
#633=PRESENTATION_STYLE_ASSIGNMENT((#634));
#634=SURFACE_STYLE_USAGE(.BOTH.,#637);
#635=SURFACE_STYLE_RENDERING_WITH_PROPERTIES($,#641,(#636));
#636=SURFACE_STYLE_TRANSPARENT(0.);
#637=SURFACE_SIDE_STYLE('',(#638,#635));
#638=SURFACE_STYLE_FILL_AREA(#639);
#639=FILL_AREA_STYLE('',(#640));
#640=FILL_AREA_STYLE_COLOUR('',#641);
#641=COLOUR_RGB('',0.996078431372549,0.996078431372549,1.);
ENDSEC;
END-ISO-10303-21;
