ISO-10303-21;
HEADER;
/* Generated by software containing ST-Developer
 * from STEP Tools, Inc. (www.steptools.com) 
 */

FILE_DESCRIPTION(
/* description */ (''),
/* implementation_level */ '2;1');

FILE_NAME(
/* name */ 'C:\\Users\\bastien.duong\\Desktop\\TO DELETE\\usineur\\P00
2.stp',
/* time_stamp */ '2021-03-03T18:39:22+01:00',
/* author */ ('bastien.duong'),
/* organization */ (''),
/* preprocessor_version */ 'ST-DEVELOPER v18',
/* originating_system */ 'Autodesk Inventor 2020',
/* authorisation */ '');

FILE_SCHEMA (('AUTOMOTIVE_DESIGN { 1 0 10303 214 3 1 1 }'));
ENDSEC;

DATA;
#10=MECHANICAL_DESIGN_GEOMETRIC_PRESENTATION_REPRESENTATION('',(#13),#397);
#11=SHAPE_REPRESENTATION_RELATIONSHIP('SRR','None',#404,#12);
#12=ADVANCED_BREP_SHAPE_REPRESENTATION('',(#14),#396);
#13=STYLED_ITEM('',(#413),#14);
#14=MANIFOLD_SOLID_BREP('Solid1',#216);
#15=FACE_BOUND('',#58,.T.);
#16=FACE_BOUND('',#63,.T.);
#17=CONICAL_SURFACE('',#248,3.25,0.785398163397449);
#18=CYLINDRICAL_SURFACE('',#239,2.5);
#19=CYLINDRICAL_SURFACE('',#242,0.5);
#20=CYLINDRICAL_SURFACE('',#253,4.);
#21=CYLINDRICAL_SURFACE('',#260,2.525);
#22=CIRCLE('',#238,2.5);
#23=CIRCLE('',#240,2.5);
#24=CIRCLE('',#241,2.5);
#25=CIRCLE('',#243,0.5);
#26=CIRCLE('',#244,0.5);
#27=CIRCLE('',#245,0.5);
#28=CIRCLE('',#246,0.5);
#29=CIRCLE('',#249,4.);
#30=CIRCLE('',#250,4.);
#31=CIRCLE('',#251,2.5);
#32=CIRCLE('',#254,4.);
#33=CIRCLE('',#255,4.);
#34=CIRCLE('',#258,2.525);
#35=CIRCLE('',#261,2.525);
#36=FACE_OUTER_BOUND('',#49,.T.);
#37=FACE_OUTER_BOUND('',#50,.T.);
#38=FACE_OUTER_BOUND('',#51,.T.);
#39=FACE_OUTER_BOUND('',#52,.T.);
#40=FACE_OUTER_BOUND('',#53,.T.);
#41=FACE_OUTER_BOUND('',#54,.T.);
#42=FACE_OUTER_BOUND('',#55,.T.);
#43=FACE_OUTER_BOUND('',#56,.T.);
#44=FACE_OUTER_BOUND('',#57,.T.);
#45=FACE_OUTER_BOUND('',#59,.T.);
#46=FACE_OUTER_BOUND('',#60,.T.);
#47=FACE_OUTER_BOUND('',#61,.T.);
#48=FACE_OUTER_BOUND('',#62,.T.);
#49=EDGE_LOOP('',(#139,#140,#141,#142));
#50=EDGE_LOOP('',(#143,#144,#145));
#51=EDGE_LOOP('',(#146,#147,#148,#149,#150));
#52=EDGE_LOOP('',(#151,#152,#153,#154,#155,#156));
#53=EDGE_LOOP('',(#157,#158));
#54=EDGE_LOOP('',(#159,#160,#161,#162,#163,#164,#165));
#55=EDGE_LOOP('',(#166,#167,#168));
#56=EDGE_LOOP('',(#169,#170,#171,#172,#173,#174));
#57=EDGE_LOOP('',(#175,#176,#177,#178));
#58=EDGE_LOOP('',(#179,#180));
#59=EDGE_LOOP('',(#181,#182));
#60=EDGE_LOOP('',(#183,#184,#185,#186));
#61=EDGE_LOOP('',(#187,#188,#189,#190));
#62=EDGE_LOOP('',(#191,#192));
#63=EDGE_LOOP('',(#193,#194));
#64=LINE('',#337,#78);
#65=LINE('',#339,#79);
#66=LINE('',#341,#80);
#67=LINE('',#342,#81);
#68=LINE('',#346,#82);
#69=LINE('',#352,#83);
#70=LINE('',#359,#84);
#71=LINE('',#366,#85);
#72=LINE('',#372,#86);
#73=LINE('',#375,#87);
#74=LINE('',#383,#88);
#75=LINE('',#388,#89);
#76=LINE('',#389,#90);
#77=LINE('',#390,#91);
#78=VECTOR('',#267,10.);
#79=VECTOR('',#268,10.);
#80=VECTOR('',#269,10.);
#81=VECTOR('',#270,10.);
#82=VECTOR('',#275,10.);
#83=VECTOR('',#282,10.);
#84=VECTOR('',#289,0.5);
#85=VECTOR('',#298,3.25);
#86=VECTOR('',#307,10.);
#87=VECTOR('',#310,4.);
#88=VECTOR('',#319,10.);
#89=VECTOR('',#324,10.);
#90=VECTOR('',#325,10.);
#91=VECTOR('',#326,10.);
#92=VERTEX_POINT('',#335);
#93=VERTEX_POINT('',#336);
#94=VERTEX_POINT('',#338);
#95=VERTEX_POINT('',#340);
#96=VERTEX_POINT('',#344);
#97=VERTEX_POINT('',#348);
#98=VERTEX_POINT('',#350);
#99=VERTEX_POINT('',#354);
#100=VERTEX_POINT('',#355);
#101=VERTEX_POINT('',#358);
#102=VERTEX_POINT('',#360);
#103=VERTEX_POINT('',#365);
#104=VERTEX_POINT('',#367);
#105=VERTEX_POINT('',#374);
#106=VERTEX_POINT('',#376);
#107=VERTEX_POINT('',#381);
#108=VERTEX_POINT('',#382);
#109=VERTEX_POINT('',#386);
#110=VERTEX_POINT('',#387);
#111=EDGE_CURVE('',#92,#93,#64,.T.);
#112=EDGE_CURVE('',#93,#94,#65,.T.);
#113=EDGE_CURVE('',#95,#94,#66,.T.);
#114=EDGE_CURVE('',#95,#92,#67,.T.);
#115=EDGE_CURVE('',#92,#96,#22,.T.);
#116=EDGE_CURVE('',#96,#93,#68,.T.);
#117=EDGE_CURVE('',#97,#95,#23,.T.);
#118=EDGE_CURVE('',#98,#97,#24,.T.);
#119=EDGE_CURVE('',#98,#96,#69,.T.);
#120=EDGE_CURVE('',#99,#100,#25,.T.);
#121=EDGE_CURVE('',#100,#99,#26,.T.);
#122=EDGE_CURVE('',#100,#101,#70,.T.);
#123=EDGE_CURVE('',#102,#101,#27,.T.);
#124=EDGE_CURVE('',#101,#102,#28,.T.);
#125=EDGE_CURVE('',#97,#103,#71,.T.);
#126=EDGE_CURVE('',#103,#104,#29,.T.);
#127=EDGE_CURVE('',#104,#103,#30,.T.);
#128=EDGE_CURVE('',#95,#98,#31,.T.);
#129=EDGE_CURVE('',#94,#98,#72,.T.);
#130=EDGE_CURVE('',#104,#105,#73,.T.);
#131=EDGE_CURVE('',#105,#106,#32,.T.);
#132=EDGE_CURVE('',#106,#105,#33,.T.);
#133=EDGE_CURVE('',#107,#108,#74,.T.);
#134=EDGE_CURVE('',#108,#107,#34,.T.);
#135=EDGE_CURVE('',#109,#110,#75,.T.);
#136=EDGE_CURVE('',#110,#108,#76,.T.);
#137=EDGE_CURVE('',#109,#107,#77,.T.);
#138=EDGE_CURVE('',#110,#109,#35,.T.);
#139=ORIENTED_EDGE('',*,*,#111,.T.);
#140=ORIENTED_EDGE('',*,*,#112,.T.);
#141=ORIENTED_EDGE('',*,*,#113,.F.);
#142=ORIENTED_EDGE('',*,*,#114,.T.);
#143=ORIENTED_EDGE('',*,*,#111,.F.);
#144=ORIENTED_EDGE('',*,*,#115,.T.);
#145=ORIENTED_EDGE('',*,*,#116,.T.);
#146=ORIENTED_EDGE('',*,*,#114,.F.);
#147=ORIENTED_EDGE('',*,*,#117,.F.);
#148=ORIENTED_EDGE('',*,*,#118,.F.);
#149=ORIENTED_EDGE('',*,*,#119,.T.);
#150=ORIENTED_EDGE('',*,*,#115,.F.);
#151=ORIENTED_EDGE('',*,*,#120,.F.);
#152=ORIENTED_EDGE('',*,*,#121,.F.);
#153=ORIENTED_EDGE('',*,*,#122,.T.);
#154=ORIENTED_EDGE('',*,*,#123,.F.);
#155=ORIENTED_EDGE('',*,*,#124,.F.);
#156=ORIENTED_EDGE('',*,*,#122,.F.);
#157=ORIENTED_EDGE('',*,*,#123,.T.);
#158=ORIENTED_EDGE('',*,*,#124,.T.);
#159=ORIENTED_EDGE('',*,*,#118,.T.);
#160=ORIENTED_EDGE('',*,*,#125,.T.);
#161=ORIENTED_EDGE('',*,*,#126,.T.);
#162=ORIENTED_EDGE('',*,*,#127,.T.);
#163=ORIENTED_EDGE('',*,*,#125,.F.);
#164=ORIENTED_EDGE('',*,*,#117,.T.);
#165=ORIENTED_EDGE('',*,*,#128,.T.);
#166=ORIENTED_EDGE('',*,*,#128,.F.);
#167=ORIENTED_EDGE('',*,*,#113,.T.);
#168=ORIENTED_EDGE('',*,*,#129,.T.);
#169=ORIENTED_EDGE('',*,*,#126,.F.);
#170=ORIENTED_EDGE('',*,*,#127,.F.);
#171=ORIENTED_EDGE('',*,*,#130,.T.);
#172=ORIENTED_EDGE('',*,*,#131,.T.);
#173=ORIENTED_EDGE('',*,*,#132,.T.);
#174=ORIENTED_EDGE('',*,*,#130,.F.);
#175=ORIENTED_EDGE('',*,*,#112,.F.);
#176=ORIENTED_EDGE('',*,*,#116,.F.);
#177=ORIENTED_EDGE('',*,*,#119,.F.);
#178=ORIENTED_EDGE('',*,*,#129,.F.);
#179=ORIENTED_EDGE('',*,*,#120,.T.);
#180=ORIENTED_EDGE('',*,*,#121,.T.);
#181=ORIENTED_EDGE('',*,*,#133,.T.);
#182=ORIENTED_EDGE('',*,*,#134,.T.);
#183=ORIENTED_EDGE('',*,*,#135,.T.);
#184=ORIENTED_EDGE('',*,*,#136,.T.);
#185=ORIENTED_EDGE('',*,*,#133,.F.);
#186=ORIENTED_EDGE('',*,*,#137,.F.);
#187=ORIENTED_EDGE('',*,*,#138,.T.);
#188=ORIENTED_EDGE('',*,*,#137,.T.);
#189=ORIENTED_EDGE('',*,*,#134,.F.);
#190=ORIENTED_EDGE('',*,*,#136,.F.);
#191=ORIENTED_EDGE('',*,*,#132,.F.);
#192=ORIENTED_EDGE('',*,*,#131,.F.);
#193=ORIENTED_EDGE('',*,*,#138,.F.);
#194=ORIENTED_EDGE('',*,*,#135,.F.);
#195=PLANE('',#236);
#196=PLANE('',#237);
#197=PLANE('',#247);
#198=PLANE('',#252);
#199=PLANE('',#256);
#200=PLANE('',#257);
#201=PLANE('',#259);
#202=PLANE('',#262);
#203=ADVANCED_FACE('',(#36),#195,.T.);
#204=ADVANCED_FACE('',(#37),#196,.T.);
#205=ADVANCED_FACE('',(#38),#18,.T.);
#206=ADVANCED_FACE('',(#39),#19,.F.);
#207=ADVANCED_FACE('',(#40),#197,.T.);
#208=ADVANCED_FACE('',(#41),#17,.T.);
#209=ADVANCED_FACE('',(#42),#198,.T.);
#210=ADVANCED_FACE('',(#43),#20,.T.);
#211=ADVANCED_FACE('',(#44,#15),#199,.T.);
#212=ADVANCED_FACE('',(#45),#200,.F.);
#213=ADVANCED_FACE('',(#46),#201,.T.);
#214=ADVANCED_FACE('',(#47),#21,.F.);
#215=ADVANCED_FACE('',(#48,#16),#202,.F.);
#216=CLOSED_SHELL('',(#203,#204,#205,#206,#207,#208,#209,#210,#211,#212,
#213,#214,#215));
#217=DERIVED_UNIT_ELEMENT(#219,1.);
#218=DERIVED_UNIT_ELEMENT(#399,3.);
#219=(
MASS_UNIT()
NAMED_UNIT(*)
SI_UNIT($,.GRAM.)
);
#220=DERIVED_UNIT((#217,#218));
#221=MEASURE_REPRESENTATION_ITEM('density measure',
POSITIVE_RATIO_MEASURE(2.7),#220);
#222=PROPERTY_DEFINITION_REPRESENTATION(#227,#224);
#223=PROPERTY_DEFINITION_REPRESENTATION(#228,#225);
#224=REPRESENTATION('material name',(#226),#396);
#225=REPRESENTATION('density',(#221),#396);
#226=DESCRIPTIVE_REPRESENTATION_ITEM('Aluminum 6061','Aluminum 6061');
#227=PROPERTY_DEFINITION('material property','material name',#406);
#228=PROPERTY_DEFINITION('material property','density of part',#406);
#229=DATE_TIME_ROLE('creation_date');
#230=APPLIED_DATE_AND_TIME_ASSIGNMENT(#231,#229,(#406));
#231=DATE_AND_TIME(#232,#233);
#232=CALENDAR_DATE(2021,3,2);
#233=LOCAL_TIME(15,39,38.,#234);
#234=COORDINATED_UNIVERSAL_TIME_OFFSET(0,0,.BEHIND.);
#235=AXIS2_PLACEMENT_3D('placement',#333,#263,#264);
#236=AXIS2_PLACEMENT_3D('',#334,#265,#266);
#237=AXIS2_PLACEMENT_3D('',#343,#271,#272);
#238=AXIS2_PLACEMENT_3D('',#345,#273,#274);
#239=AXIS2_PLACEMENT_3D('',#347,#276,#277);
#240=AXIS2_PLACEMENT_3D('',#349,#278,#279);
#241=AXIS2_PLACEMENT_3D('',#351,#280,#281);
#242=AXIS2_PLACEMENT_3D('',#353,#283,#284);
#243=AXIS2_PLACEMENT_3D('',#356,#285,#286);
#244=AXIS2_PLACEMENT_3D('',#357,#287,#288);
#245=AXIS2_PLACEMENT_3D('',#361,#290,#291);
#246=AXIS2_PLACEMENT_3D('',#362,#292,#293);
#247=AXIS2_PLACEMENT_3D('',#363,#294,#295);
#248=AXIS2_PLACEMENT_3D('',#364,#296,#297);
#249=AXIS2_PLACEMENT_3D('',#368,#299,#300);
#250=AXIS2_PLACEMENT_3D('',#369,#301,#302);
#251=AXIS2_PLACEMENT_3D('',#370,#303,#304);
#252=AXIS2_PLACEMENT_3D('',#371,#305,#306);
#253=AXIS2_PLACEMENT_3D('',#373,#308,#309);
#254=AXIS2_PLACEMENT_3D('',#377,#311,#312);
#255=AXIS2_PLACEMENT_3D('',#378,#313,#314);
#256=AXIS2_PLACEMENT_3D('',#379,#315,#316);
#257=AXIS2_PLACEMENT_3D('',#380,#317,#318);
#258=AXIS2_PLACEMENT_3D('',#384,#320,#321);
#259=AXIS2_PLACEMENT_3D('',#385,#322,#323);
#260=AXIS2_PLACEMENT_3D('',#391,#327,#328);
#261=AXIS2_PLACEMENT_3D('',#392,#329,#330);
#262=AXIS2_PLACEMENT_3D('',#393,#331,#332);
#263=DIRECTION('axis',(0.,0.,1.));
#264=DIRECTION('refdir',(1.,0.,0.));
#265=DIRECTION('center_axis',(-0.335141952167292,0.942167645325128,0.));
#266=DIRECTION('ref_axis',(0.,0.,1.));
#267=DIRECTION('',(0.942167645325128,0.335141952167292,0.));
#268=DIRECTION('',(0.,0.,-1.));
#269=DIRECTION('',(0.942167645325128,0.335141952167292,0.));
#270=DIRECTION('',(0.,0.,1.));
#271=DIRECTION('center_axis',(0.,0.,1.));
#272=DIRECTION('ref_axis',(1.,0.,0.));
#273=DIRECTION('center_axis',(0.,0.,1.));
#274=DIRECTION('ref_axis',(1.,0.,0.));
#275=DIRECTION('',(-1.,0.,0.));
#276=DIRECTION('center_axis',(0.,0.,1.));
#277=DIRECTION('ref_axis',(0.0400000000000001,-0.999199679743744,0.));
#278=DIRECTION('center_axis',(0.,0.,-1.));
#279=DIRECTION('ref_axis',(1.,0.,0.));
#280=DIRECTION('center_axis',(0.,0.,-1.));
#281=DIRECTION('ref_axis',(1.,0.,0.));
#282=DIRECTION('',(0.,0.,1.));
#283=DIRECTION('center_axis',(0.,1.,0.));
#284=DIRECTION('ref_axis',(1.,0.,0.));
#285=DIRECTION('center_axis',(0.,-1.,0.));
#286=DIRECTION('ref_axis',(1.,0.,0.));
#287=DIRECTION('center_axis',(0.,-1.,0.));
#288=DIRECTION('ref_axis',(1.,0.,0.));
#289=DIRECTION('',(0.,-1.,0.));
#290=DIRECTION('center_axis',(0.,1.,0.));
#291=DIRECTION('ref_axis',(1.,0.,0.));
#292=DIRECTION('center_axis',(0.,1.,0.));
#293=DIRECTION('ref_axis',(1.,0.,0.));
#294=DIRECTION('center_axis',(0.,1.,0.));
#295=DIRECTION('ref_axis',(1.,0.,0.));
#296=DIRECTION('center_axis',(0.,0.,-1.));
#297=DIRECTION('ref_axis',(-1.,0.,0.));
#298=DIRECTION('',(0.707106781186548,8.65956056235494E-17,-0.707106781186547));
#299=DIRECTION('center_axis',(0.,0.,1.));
#300=DIRECTION('ref_axis',(-1.,0.,0.));
#301=DIRECTION('center_axis',(0.,0.,1.));
#302=DIRECTION('ref_axis',(-1.,0.,0.));
#303=DIRECTION('center_axis',(0.,0.,-1.));
#304=DIRECTION('ref_axis',(1.,0.,0.));
#305=DIRECTION('center_axis',(0.,0.,1.));
#306=DIRECTION('ref_axis',(1.,0.,0.));
#307=DIRECTION('',(1.,0.,0.));
#308=DIRECTION('center_axis',(0.,0.,1.));
#309=DIRECTION('ref_axis',(1.,0.,0.));
#310=DIRECTION('',(0.,0.,-1.));
#311=DIRECTION('center_axis',(0.,0.,1.));
#312=DIRECTION('ref_axis',(1.,0.,0.));
#313=DIRECTION('center_axis',(0.,0.,1.));
#314=DIRECTION('ref_axis',(1.,0.,0.));
#315=DIRECTION('center_axis',(0.,1.,0.));
#316=DIRECTION('ref_axis',(-1.,0.,0.));
#317=DIRECTION('center_axis',(0.,0.,1.));
#318=DIRECTION('ref_axis',(1.,0.,0.));
#319=DIRECTION('',(1.,0.,0.));
#320=DIRECTION('center_axis',(0.,0.,-1.));
#321=DIRECTION('ref_axis',(-1.,0.,0.));
#322=DIRECTION('center_axis',(0.,-1.,0.));
#323=DIRECTION('ref_axis',(1.,0.,0.));
#324=DIRECTION('',(1.,0.,0.));
#325=DIRECTION('',(0.,0.,1.));
#326=DIRECTION('',(0.,0.,1.));
#327=DIRECTION('center_axis',(0.,0.,1.));
#328=DIRECTION('ref_axis',(-6.12323399573677E-17,-1.,0.));
#329=DIRECTION('center_axis',(0.,0.,-1.));
#330=DIRECTION('ref_axis',(-1.,0.,0.));
#331=DIRECTION('center_axis',(0.,0.,1.));
#332=DIRECTION('ref_axis',(1.,0.,0.));
#333=CARTESIAN_POINT('',(0.,0.,0.));
#334=CARTESIAN_POINT('Origin',(-1.4775359743795,1.93684801921538,16.));
#335=CARTESIAN_POINT('',(-1.655071948759,1.87369603843075,31.));
#336=CARTESIAN_POINT('',(-1.3,2.,31.));
#337=CARTESIAN_POINT('',(-1.16700596236989,2.0473078030424,31.));
#338=CARTESIAN_POINT('',(-1.3,2.,16.));
#339=CARTESIAN_POINT('',(-1.3,2.,16.));
#340=CARTESIAN_POINT('',(-1.655071948759,1.87369603843075,16.));
#341=CARTESIAN_POINT('',(-1.1275359743795,2.06134781905522,16.));
#342=CARTESIAN_POINT('',(-1.655071948759,1.87369603843075,16.));
#343=CARTESIAN_POINT('Origin',(0.,-0.25,31.));
#344=CARTESIAN_POINT('',(1.5,2.,31.));
#345=CARTESIAN_POINT('Origin',(0.,0.,31.));
#346=CARTESIAN_POINT('',(1.58192920195564,2.,31.));
#347=CARTESIAN_POINT('Origin',(0.,0.,16.));
#348=CARTESIAN_POINT('',(2.5,3.06161699786838E-16,16.));
#349=CARTESIAN_POINT('Origin',(0.,0.,16.));
#350=CARTESIAN_POINT('',(1.5,2.,16.));
#351=CARTESIAN_POINT('Origin',(0.,0.,16.));
#352=CARTESIAN_POINT('',(1.5,2.,16.));
#353=CARTESIAN_POINT('Origin',(0.,0.75,28.7));
#354=CARTESIAN_POINT('',(0.5,2.,28.7));
#355=CARTESIAN_POINT('',(-0.5,2.,28.7));
#356=CARTESIAN_POINT('Origin',(0.,2.,28.7));
#357=CARTESIAN_POINT('Origin',(0.,2.,28.7));
#358=CARTESIAN_POINT('',(-0.5,-0.5,28.7));
#359=CARTESIAN_POINT('',(-0.5,0.75,28.7));
#360=CARTESIAN_POINT('',(0.5,-0.5,28.7));
#361=CARTESIAN_POINT('Origin',(0.,-0.5,28.7));
#362=CARTESIAN_POINT('Origin',(0.,-0.5,28.7));
#363=CARTESIAN_POINT('Origin',(0.,-0.5,28.7));
#364=CARTESIAN_POINT('Origin',(0.,0.,15.25));
#365=CARTESIAN_POINT('',(4.,4.89858719658941E-16,14.5));
#366=CARTESIAN_POINT('',(3.25,3.9801020972289E-16,15.25));
#367=CARTESIAN_POINT('',(-4.,-4.89858719658941E-16,14.5));
#368=CARTESIAN_POINT('Origin',(0.,0.,14.5));
#369=CARTESIAN_POINT('Origin',(0.,0.,14.5));
#370=CARTESIAN_POINT('Origin',(0.,0.,16.));
#371=CARTESIAN_POINT('Origin',(0.,0.,16.));
#372=CARTESIAN_POINT('',(0.75,2.,16.));
#373=CARTESIAN_POINT('Origin',(0.,0.,0.));
#374=CARTESIAN_POINT('',(-4.,-4.89858719658941E-16,0.));
#375=CARTESIAN_POINT('',(-4.,-4.89858719658941E-16,0.));
#376=CARTESIAN_POINT('',(4.,0.,0.));
#377=CARTESIAN_POINT('Origin',(0.,0.,0.));
#378=CARTESIAN_POINT('Origin',(0.,0.,0.));
#379=CARTESIAN_POINT('Origin',(1.5,2.,16.));
#380=CARTESIAN_POINT('Origin',(0.,0.,8.));
#381=CARTESIAN_POINT('',(-1.47415229878056,2.05,8.));
#382=CARTESIAN_POINT('',(1.47415229878056,2.05,8.));
#383=CARTESIAN_POINT('',(-1.47415229878056,2.05,8.));
#384=CARTESIAN_POINT('Origin',(0.,0.,8.));
#385=CARTESIAN_POINT('Origin',(-1.47415229878056,2.05,0.));
#386=CARTESIAN_POINT('',(-1.47415229878056,2.05,0.));
#387=CARTESIAN_POINT('',(1.47415229878056,2.05,0.));
#388=CARTESIAN_POINT('',(-1.47415229878056,2.05,0.));
#389=CARTESIAN_POINT('',(1.47415229878056,2.05,0.));
#390=CARTESIAN_POINT('',(-1.47415229878056,2.05,0.));
#391=CARTESIAN_POINT('Origin',(0.,0.,0.));
#392=CARTESIAN_POINT('Origin',(0.,0.,0.));
#393=CARTESIAN_POINT('Origin',(0.,0.,0.));
#394=UNCERTAINTY_MEASURE_WITH_UNIT(LENGTH_MEASURE(0.01),#398,
'DISTANCE_ACCURACY_VALUE',
'Maximum model space distance between geometric entities at asserted c
onnectivities');
#395=UNCERTAINTY_MEASURE_WITH_UNIT(LENGTH_MEASURE(0.01),#398,
'DISTANCE_ACCURACY_VALUE',
'Maximum model space distance between geometric entities at asserted c
onnectivities');
#396=(
GEOMETRIC_REPRESENTATION_CONTEXT(3)
GLOBAL_UNCERTAINTY_ASSIGNED_CONTEXT((#394))
GLOBAL_UNIT_ASSIGNED_CONTEXT((#398,#400,#401))
REPRESENTATION_CONTEXT('','3D')
);
#397=(
GEOMETRIC_REPRESENTATION_CONTEXT(3)
GLOBAL_UNCERTAINTY_ASSIGNED_CONTEXT((#395))
GLOBAL_UNIT_ASSIGNED_CONTEXT((#398,#400,#401))
REPRESENTATION_CONTEXT('','3D')
);
#398=(
LENGTH_UNIT()
NAMED_UNIT(*)
SI_UNIT(.MILLI.,.METRE.)
);
#399=(
LENGTH_UNIT()
NAMED_UNIT(*)
SI_UNIT(.CENTI.,.METRE.)
);
#400=(
NAMED_UNIT(*)
PLANE_ANGLE_UNIT()
SI_UNIT($,.RADIAN.)
);
#401=(
NAMED_UNIT(*)
SI_UNIT($,.STERADIAN.)
SOLID_ANGLE_UNIT()
);
#402=SHAPE_DEFINITION_REPRESENTATION(#403,#404);
#403=PRODUCT_DEFINITION_SHAPE('',$,#406);
#404=SHAPE_REPRESENTATION('',(#235),#396);
#405=PRODUCT_DEFINITION_CONTEXT('part definition',#410,'design');
#406=PRODUCT_DEFINITION('GSE-020-MGSE-0003-01 - Shaft extension',
'GSE-020-MGSE-0003-01 - Shaft extension',#407,#405);
#407=PRODUCT_DEFINITION_FORMATION('',$,#412);
#408=PRODUCT_RELATED_PRODUCT_CATEGORY(
'GSE-020-MGSE-0003-01 - Shaft extension',
'GSE-020-MGSE-0003-01 - Shaft extension',(#412));
#409=APPLICATION_PROTOCOL_DEFINITION('international standard',
'automotive_design',2009,#410);
#410=APPLICATION_CONTEXT(
'Core Data for Automotive Mechanical Design Process');
#411=PRODUCT_CONTEXT('part definition',#410,'mechanical');
#412=PRODUCT('GSE-020-MGSE-0003-01 - Shaft extension',
'GSE-020-MGSE-0003-01 - Shaft extension',$,(#411));
#413=PRESENTATION_STYLE_ASSIGNMENT((#414));
#414=SURFACE_STYLE_USAGE(.BOTH.,#417);
#415=SURFACE_STYLE_RENDERING_WITH_PROPERTIES($,#421,(#416));
#416=SURFACE_STYLE_TRANSPARENT(0.);
#417=SURFACE_SIDE_STYLE('',(#418,#415));
#418=SURFACE_STYLE_FILL_AREA(#419);
#419=FILL_AREA_STYLE('',(#420));
#420=FILL_AREA_STYLE_COLOUR('',#421);
#421=COLOUR_RGB('',0.996078431372549,0.996078431372549,1.);
ENDSEC;
END-ISO-10303-21;
