ISO-10303-21;
HEADER;
FILE_DESCRIPTION(('CATIA V5 STEP'),'2;1');

FILE_NAME('C:\\Users\\zxmulassy247\\Desktop\\CAD_MAISON_VALLEGUE\\3D\\OBJETS\\PERGOLA\\usinage\\PLAQUE ECROU 2.stp','2022-02-08T12:00:31+00:00',('none'),('none'),'CATIA Version 5 Release 21 SP 6 (IN-10)','CATIA V5 STEP AP203','none');

FILE_SCHEMA(('CONFIG_CONTROL_DESIGN'));

ENDSEC;
DATA;
#5=PRODUCT('PLAQUE ECROU 2','','',(#2)) ;
#1=APPLICATION_CONTEXT('configuration controlled 3D design of mechanical parts and assemblies') ;
#14=PRODUCT_DEFINITION('',' ',#6,#3) ;
#16=SECURITY_CLASSIFICATION(' ',' ',#15) ;
#15=SECURITY_CLASSIFICATION_LEVEL('unclassified') ;
#46=CARTESIAN_POINT(' ',(0.,0.,0.)) ;
#51=CARTESIAN_POINT('Axis2P3D Location',(0.,1.11022302463E-016,9.9)) ;
#56=CARTESIAN_POINT('Line Origine',(-1.07898775984,0.589453699714,5.00000018999)) ;
#60=CARTESIAN_POINT('Vertex',(-1.07898775984,0.589453699714,0.)) ;
#62=CARTESIAN_POINT('Vertex',(-1.07898775984,0.589453699714,10.)) ;
#65=CARTESIAN_POINT('Axis2P3D Location',(0.,1.11022302463E-016,0.)) ;
#69=CARTESIAN_POINT('Vertex',(1.07898775984,-0.589453699714,0.)) ;
#72=CARTESIAN_POINT('Line Origine',(1.07898775984,-0.589453699714,5.00000018999)) ;
#76=CARTESIAN_POINT('Vertex',(1.07898775984,-0.589453699714,10.)) ;
#79=CARTESIAN_POINT('Axis2P3D Location',(0.,1.11022302463E-016,10.)) ;
#91=CARTESIAN_POINT('Axis2P3D Location',(0.,1.11022302463E-016,0.)) ;
#96=CARTESIAN_POINT('Axis2P3D Location',(0.,1.11022302463E-016,10.)) ;
#108=CARTESIAN_POINT('Axis2P3D Location',(-18.,0.,0.1)) ;
#113=CARTESIAN_POINT('Line Origine',(-20.9166456444,-1.59337077755,5.)) ;
#117=CARTESIAN_POINT('Vertex',(-20.9166456444,-1.59337077755,10.)) ;
#119=CARTESIAN_POINT('Vertex',(-20.9166456444,-1.59337077755,3.60822483003E-016)) ;
#122=CARTESIAN_POINT('Axis2P3D Location',(-18.,0.,10.)) ;
#126=CARTESIAN_POINT('Vertex',(-15.0833543556,1.59337077755,10.)) ;
#129=CARTESIAN_POINT('Line Origine',(-15.0833543556,1.59337077755,5.)) ;
#133=CARTESIAN_POINT('Vertex',(-15.0833543556,1.59337077755,3.60822483003E-016)) ;
#136=CARTESIAN_POINT('Axis2P3D Location',(-18.,0.,0.)) ;
#148=CARTESIAN_POINT('Axis2P3D Location',(-18.,0.,10.)) ;
#153=CARTESIAN_POINT('Axis2P3D Location',(-18.,0.,0.)) ;
#165=CARTESIAN_POINT('Axis2P3D Location',(18.,0.,0.1)) ;
#170=CARTESIAN_POINT('Line Origine',(20.9166456444,1.59337077755,5.)) ;
#174=CARTESIAN_POINT('Vertex',(20.9166456444,1.59337077755,10.)) ;
#176=CARTESIAN_POINT('Vertex',(20.9166456444,1.59337077755,3.60822483003E-016)) ;
#179=CARTESIAN_POINT('Axis2P3D Location',(18.,0.,10.)) ;
#183=CARTESIAN_POINT('Vertex',(15.0833543556,-1.59337077755,10.)) ;
#186=CARTESIAN_POINT('Line Origine',(15.0833543556,-1.59337077755,5.)) ;
#190=CARTESIAN_POINT('Vertex',(15.0833543556,-1.59337077755,3.60822483003E-016)) ;
#193=CARTESIAN_POINT('Axis2P3D Location',(18.,0.,0.)) ;
#205=CARTESIAN_POINT('Axis2P3D Location',(18.,0.,10.)) ;
#210=CARTESIAN_POINT('Axis2P3D Location',(18.,0.,0.)) ;
#222=CARTESIAN_POINT('Axis2P3D Location',(28.,-2.5,-2.)) ;
#227=CARTESIAN_POINT('Line Origine',(25.5,-5.,10.)) ;
#231=CARTESIAN_POINT('Vertex',(28.,-2.5,10.)) ;
#233=CARTESIAN_POINT('Vertex',(23.,-7.5,10.)) ;
#236=CARTESIAN_POINT('Line Origine',(23.,-7.5,5.)) ;
#240=CARTESIAN_POINT('Vertex',(23.,-7.5,0.)) ;
#243=CARTESIAN_POINT('Line Origine',(25.5,-5.,-2.22044604925E-016)) ;
#247=CARTESIAN_POINT('Vertex',(28.,-2.5,0.)) ;
#250=CARTESIAN_POINT('Line Origine',(28.,-2.5,5.)) ;
#262=CARTESIAN_POINT('Axis2P3D Location',(28.,7.5,0.)) ;
#267=CARTESIAN_POINT('Line Origine',(28.,2.5,5.)) ;
#271=CARTESIAN_POINT('Vertex',(28.,2.5,0.)) ;
#273=CARTESIAN_POINT('Vertex',(28.,2.5,10.)) ;
#276=CARTESIAN_POINT('Line Origine',(28.,2.6645352591E-015,10.)) ;
#281=CARTESIAN_POINT('Line Origine',(28.,2.6645352591E-015,0.)) ;
#293=CARTESIAN_POINT('Axis2P3D Location',(28.,2.5,-2.)) ;
#298=CARTESIAN_POINT('Line Origine',(25.5,5.,0.)) ;
#302=CARTESIAN_POINT('Vertex',(23.,7.5,0.)) ;
#305=CARTESIAN_POINT('Line Origine',(23.,7.5,5.)) ;
#309=CARTESIAN_POINT('Vertex',(23.,7.5,10.)) ;
#312=CARTESIAN_POINT('Line Origine',(25.5,5.,10.)) ;
#324=CARTESIAN_POINT('Axis2P3D Location',(-28.,7.5,0.)) ;
#329=CARTESIAN_POINT('Line Origine',(-23.,7.5,5.)) ;
#333=CARTESIAN_POINT('Vertex',(-23.,7.5,0.)) ;
#335=CARTESIAN_POINT('Vertex',(-23.,7.5,10.)) ;
#338=CARTESIAN_POINT('Line Origine',(3.5527136788E-015,7.5,10.)) ;
#343=CARTESIAN_POINT('Line Origine',(3.5527136788E-015,7.5,0.)) ;
#355=CARTESIAN_POINT('Axis2P3D Location',(-28.,2.5,-2.)) ;
#360=CARTESIAN_POINT('Line Origine',(-25.5,5.,10.)) ;
#364=CARTESIAN_POINT('Vertex',(-28.,2.5,10.)) ;
#367=CARTESIAN_POINT('Line Origine',(-25.5,5.,-2.22044604925E-016)) ;
#371=CARTESIAN_POINT('Vertex',(-28.,2.5,0.)) ;
#374=CARTESIAN_POINT('Line Origine',(-28.,2.5,5.)) ;
#386=CARTESIAN_POINT('Axis2P3D Location',(28.,-7.5,0.)) ;
#391=CARTESIAN_POINT('Line Origine',(-23.,-7.5,5.)) ;
#395=CARTESIAN_POINT('Vertex',(-23.,-7.5,0.)) ;
#397=CARTESIAN_POINT('Vertex',(-23.,-7.5,10.)) ;
#400=CARTESIAN_POINT('Line Origine',(3.5527136788E-015,-7.5,0.)) ;
#405=CARTESIAN_POINT('Line Origine',(3.5527136788E-015,-7.5,10.)) ;
#417=CARTESIAN_POINT('Axis2P3D Location',(-28.,-7.5,0.)) ;
#422=CARTESIAN_POINT('Line Origine',(-28.,-2.5,5.)) ;
#426=CARTESIAN_POINT('Vertex',(-28.,-2.5,0.)) ;
#428=CARTESIAN_POINT('Vertex',(-28.,-2.5,10.)) ;
#431=CARTESIAN_POINT('Line Origine',(-28.,-4.4408920985E-016,10.)) ;
#436=CARTESIAN_POINT('Line Origine',(-28.,-4.4408920985E-016,0.)) ;
#448=CARTESIAN_POINT('Axis2P3D Location',(0.,0.,10.)) ;
#453=CARTESIAN_POINT('Line Origine',(-25.5,-5.,10.)) ;
#481=CARTESIAN_POINT('Axis2P3D Location',(0.,0.,0.)) ;
#486=CARTESIAN_POINT('Line Origine',(-25.5,-5.,0.)) ;
#514=CARTESIAN_POINT('Axis2P3D Location',(-28.,-2.5,-2.)) ;
#52=DIRECTION('Axis2P3D Direction',(0.,-0.,-1.)) ;
#53=DIRECTION('Axis2P3D XDirection',(0.87758256189,-0.479425538604,0.)) ;
#57=DIRECTION('Vector Direction',(0.,0.,-1.)) ;
#66=DIRECTION('Axis2P3D Direction',(0.,-0.,-1.)) ;
#73=DIRECTION('Vector Direction',(0.,0.,-1.)) ;
#80=DIRECTION('Axis2P3D Direction',(0.,-0.,-1.)) ;
#92=DIRECTION('Axis2P3D Direction',(0.,-0.,-1.)) ;
#97=DIRECTION('Axis2P3D Direction',(0.,-0.,-1.)) ;
#109=DIRECTION('Axis2P3D Direction',(0.,0.,1.)) ;
#110=DIRECTION('Axis2P3D XDirection',(0.87758256189,0.479425538604,0.)) ;
#114=DIRECTION('Vector Direction',(0.,0.,1.)) ;
#123=DIRECTION('Axis2P3D Direction',(0.,0.,1.)) ;
#130=DIRECTION('Vector Direction',(0.,0.,1.)) ;
#137=DIRECTION('Axis2P3D Direction',(0.,0.,1.)) ;
#149=DIRECTION('Axis2P3D Direction',(0.,0.,1.)) ;
#154=DIRECTION('Axis2P3D Direction',(0.,0.,1.)) ;
#166=DIRECTION('Axis2P3D Direction',(0.,-0.,1.)) ;
#167=DIRECTION('Axis2P3D XDirection',(-0.87758256189,-0.479425538604,-0.)) ;
#171=DIRECTION('Vector Direction',(0.,0.,1.)) ;
#180=DIRECTION('Axis2P3D Direction',(0.,-0.,1.)) ;
#187=DIRECTION('Vector Direction',(0.,0.,1.)) ;
#194=DIRECTION('Axis2P3D Direction',(0.,-0.,1.)) ;
#206=DIRECTION('Axis2P3D Direction',(0.,-0.,1.)) ;
#211=DIRECTION('Axis2P3D Direction',(0.,-0.,1.)) ;
#223=DIRECTION('Axis2P3D Direction',(0.707106781187,-0.707106781187,0.)) ;
#224=DIRECTION('Axis2P3D XDirection',(0.,0.,1.)) ;
#228=DIRECTION('Vector Direction',(-0.707106781187,-0.707106781187,0.)) ;
#237=DIRECTION('Vector Direction',(0.,0.,1.)) ;
#244=DIRECTION('Vector Direction',(-0.707106781187,-0.707106781187,0.)) ;
#251=DIRECTION('Vector Direction',(0.,0.,1.)) ;
#263=DIRECTION('Axis2P3D Direction',(-1.,-2.36847578587E-016,0.)) ;
#264=DIRECTION('Axis2P3D XDirection',(2.36847578587E-016,-1.,0.)) ;
#268=DIRECTION('Vector Direction',(0.,0.,1.)) ;
#277=DIRECTION('Vector Direction',(7.1054273576E-016,-1.,0.)) ;
#282=DIRECTION('Vector Direction',(7.1054273576E-016,-1.,0.)) ;
#294=DIRECTION('Axis2P3D Direction',(-0.707106781187,-0.707106781187,0.)) ;
#295=DIRECTION('Axis2P3D XDirection',(0.,0.,1.)) ;
#299=DIRECTION('Vector Direction',(-0.707106781187,0.707106781187,0.)) ;
#306=DIRECTION('Vector Direction',(0.,0.,1.)) ;
#313=DIRECTION('Vector Direction',(-0.707106781187,0.707106781187,0.)) ;
#325=DIRECTION('Axis2P3D Direction',(0.,-1.,0.)) ;
#326=DIRECTION('Axis2P3D XDirection',(1.,0.,0.)) ;
#330=DIRECTION('Vector Direction',(0.,0.,1.)) ;
#339=DIRECTION('Vector Direction',(1.,0.,0.)) ;
#344=DIRECTION('Vector Direction',(1.,0.,0.)) ;
#356=DIRECTION('Axis2P3D Direction',(-0.707106781187,0.707106781187,0.)) ;
#357=DIRECTION('Axis2P3D XDirection',(0.,0.,1.)) ;
#361=DIRECTION('Vector Direction',(0.707106781187,0.707106781187,0.)) ;
#368=DIRECTION('Vector Direction',(0.707106781187,0.707106781187,0.)) ;
#375=DIRECTION('Vector Direction',(0.,0.,1.)) ;
#387=DIRECTION('Axis2P3D Direction',(0.,1.,-0.)) ;
#388=DIRECTION('Axis2P3D XDirection',(-1.,0.,0.)) ;
#392=DIRECTION('Vector Direction',(0.,0.,1.)) ;
#401=DIRECTION('Vector Direction',(-1.,0.,0.)) ;
#406=DIRECTION('Vector Direction',(-1.,0.,0.)) ;
#418=DIRECTION('Axis2P3D Direction',(1.,0.,0.)) ;
#419=DIRECTION('Axis2P3D XDirection',(0.,1.,0.)) ;
#423=DIRECTION('Vector Direction',(0.,0.,1.)) ;
#432=DIRECTION('Vector Direction',(0.,1.,0.)) ;
#437=DIRECTION('Vector Direction',(0.,1.,0.)) ;
#449=DIRECTION('Axis2P3D Direction',(0.,0.,1.)) ;
#450=DIRECTION('Axis2P3D XDirection',(1.,0.,0.)) ;
#454=DIRECTION('Vector Direction',(0.707106781187,-0.707106781187,0.)) ;
#482=DIRECTION('Axis2P3D Direction',(0.,0.,1.)) ;
#483=DIRECTION('Axis2P3D XDirection',(1.,0.,0.)) ;
#487=DIRECTION('Vector Direction',(0.707106781187,-0.707106781187,0.)) ;
#515=DIRECTION('Axis2P3D Direction',(0.707106781187,0.707106781187,-0.)) ;
#516=DIRECTION('Axis2P3D XDirection',(0.,0.,1.)) ;
#47=AXIS2_PLACEMENT_3D(' ',#46,$,$) ;
#54=AXIS2_PLACEMENT_3D('Cylinder Axis2P3D',#51,#52,#53) ;
#67=AXIS2_PLACEMENT_3D('Circle Axis2P3D',#65,#66,$) ;
#81=AXIS2_PLACEMENT_3D('Circle Axis2P3D',#79,#80,$) ;
#93=AXIS2_PLACEMENT_3D('Circle Axis2P3D',#91,#92,$) ;
#98=AXIS2_PLACEMENT_3D('Circle Axis2P3D',#96,#97,$) ;
#111=AXIS2_PLACEMENT_3D('Cylinder Axis2P3D',#108,#109,#110) ;
#124=AXIS2_PLACEMENT_3D('Circle Axis2P3D',#122,#123,$) ;
#138=AXIS2_PLACEMENT_3D('Circle Axis2P3D',#136,#137,$) ;
#150=AXIS2_PLACEMENT_3D('Circle Axis2P3D',#148,#149,$) ;
#155=AXIS2_PLACEMENT_3D('Circle Axis2P3D',#153,#154,$) ;
#168=AXIS2_PLACEMENT_3D('Cylinder Axis2P3D',#165,#166,#167) ;
#181=AXIS2_PLACEMENT_3D('Circle Axis2P3D',#179,#180,$) ;
#195=AXIS2_PLACEMENT_3D('Circle Axis2P3D',#193,#194,$) ;
#207=AXIS2_PLACEMENT_3D('Circle Axis2P3D',#205,#206,$) ;
#212=AXIS2_PLACEMENT_3D('Circle Axis2P3D',#210,#211,$) ;
#225=AXIS2_PLACEMENT_3D('Plane Axis2P3D',#222,#223,#224) ;
#265=AXIS2_PLACEMENT_3D('Plane Axis2P3D',#262,#263,#264) ;
#296=AXIS2_PLACEMENT_3D('Plane Axis2P3D',#293,#294,#295) ;
#327=AXIS2_PLACEMENT_3D('Plane Axis2P3D',#324,#325,#326) ;
#358=AXIS2_PLACEMENT_3D('Plane Axis2P3D',#355,#356,#357) ;
#389=AXIS2_PLACEMENT_3D('Plane Axis2P3D',#386,#387,#388) ;
#420=AXIS2_PLACEMENT_3D('Plane Axis2P3D',#417,#418,#419) ;
#451=AXIS2_PLACEMENT_3D('Plane Axis2P3D',#448,#449,#450) ;
#484=AXIS2_PLACEMENT_3D('Plane Axis2P3D',#481,#482,#483) ;
#517=AXIS2_PLACEMENT_3D('Plane Axis2P3D',#514,#515,#516) ;
#40=PRODUCT_DEFINITION_SHAPE(' ',' ',#14) ;
#31=APPROVAL_PERSON_ORGANIZATION(#25,#21,#19) ;
#25=PERSON_AND_ORGANIZATION(#22,#23) ;
#22=PERSON(' ',' ',' ',$,$,$) ;
#23=ORGANIZATION(' ',' ',' ') ;
#21=APPROVAL(#20,' ') ;
#20=APPROVAL_STATUS('not_yet_approved') ;
#19=APPROVAL_ROLE('APPROVER') ;
#13=DATE_AND_TIME(#11,#12) ;
#12=LOCAL_TIME(13,0,31.,#10) ;
#10=COORDINATED_UNIVERSAL_TIME_OFFSET(0,0,.AHEAD.) ;
#85=ORIENTED_EDGE('',*,*,#64,.F.) ;
#86=ORIENTED_EDGE('',*,*,#71,.F.) ;
#87=ORIENTED_EDGE('',*,*,#78,.T.) ;
#88=ORIENTED_EDGE('',*,*,#83,.T.) ;
#102=ORIENTED_EDGE('',*,*,#78,.F.) ;
#103=ORIENTED_EDGE('',*,*,#95,.F.) ;
#104=ORIENTED_EDGE('',*,*,#64,.T.) ;
#105=ORIENTED_EDGE('',*,*,#100,.T.) ;
#142=ORIENTED_EDGE('',*,*,#121,.F.) ;
#143=ORIENTED_EDGE('',*,*,#128,.T.) ;
#144=ORIENTED_EDGE('',*,*,#135,.T.) ;
#145=ORIENTED_EDGE('',*,*,#140,.F.) ;
#159=ORIENTED_EDGE('',*,*,#135,.F.) ;
#160=ORIENTED_EDGE('',*,*,#152,.T.) ;
#161=ORIENTED_EDGE('',*,*,#121,.T.) ;
#162=ORIENTED_EDGE('',*,*,#157,.F.) ;
#199=ORIENTED_EDGE('',*,*,#178,.F.) ;
#200=ORIENTED_EDGE('',*,*,#185,.T.) ;
#201=ORIENTED_EDGE('',*,*,#192,.T.) ;
#202=ORIENTED_EDGE('',*,*,#197,.F.) ;
#216=ORIENTED_EDGE('',*,*,#192,.F.) ;
#217=ORIENTED_EDGE('',*,*,#209,.T.) ;
#218=ORIENTED_EDGE('',*,*,#178,.T.) ;
#219=ORIENTED_EDGE('',*,*,#214,.F.) ;
#256=ORIENTED_EDGE('',*,*,#235,.T.) ;
#257=ORIENTED_EDGE('',*,*,#242,.F.) ;
#258=ORIENTED_EDGE('',*,*,#249,.T.) ;
#259=ORIENTED_EDGE('',*,*,#254,.T.) ;
#287=ORIENTED_EDGE('',*,*,#275,.T.) ;
#288=ORIENTED_EDGE('',*,*,#280,.F.) ;
#289=ORIENTED_EDGE('',*,*,#254,.F.) ;
#290=ORIENTED_EDGE('',*,*,#285,.T.) ;
#318=ORIENTED_EDGE('',*,*,#275,.F.) ;
#319=ORIENTED_EDGE('',*,*,#304,.T.) ;
#320=ORIENTED_EDGE('',*,*,#311,.T.) ;
#321=ORIENTED_EDGE('',*,*,#316,.T.) ;
#349=ORIENTED_EDGE('',*,*,#337,.T.) ;
#350=ORIENTED_EDGE('',*,*,#342,.F.) ;
#351=ORIENTED_EDGE('',*,*,#311,.F.) ;
#352=ORIENTED_EDGE('',*,*,#347,.T.) ;
#380=ORIENTED_EDGE('',*,*,#366,.T.) ;
#381=ORIENTED_EDGE('',*,*,#337,.F.) ;
#382=ORIENTED_EDGE('',*,*,#373,.T.) ;
#383=ORIENTED_EDGE('',*,*,#378,.T.) ;
#411=ORIENTED_EDGE('',*,*,#399,.F.) ;
#412=ORIENTED_EDGE('',*,*,#404,.T.) ;
#413=ORIENTED_EDGE('',*,*,#242,.T.) ;
#414=ORIENTED_EDGE('',*,*,#409,.F.) ;
#442=ORIENTED_EDGE('',*,*,#430,.T.) ;
#443=ORIENTED_EDGE('',*,*,#435,.F.) ;
#444=ORIENTED_EDGE('',*,*,#378,.F.) ;
#445=ORIENTED_EDGE('',*,*,#440,.T.) ;
#459=ORIENTED_EDGE('',*,*,#409,.T.) ;
#460=ORIENTED_EDGE('',*,*,#235,.F.) ;
#461=ORIENTED_EDGE('',*,*,#280,.T.) ;
#462=ORIENTED_EDGE('',*,*,#316,.F.) ;
#463=ORIENTED_EDGE('',*,*,#342,.T.) ;
#464=ORIENTED_EDGE('',*,*,#366,.F.) ;
#465=ORIENTED_EDGE('',*,*,#435,.T.) ;
#466=ORIENTED_EDGE('',*,*,#457,.F.) ;
#469=ORIENTED_EDGE('',*,*,#100,.F.) ;
#470=ORIENTED_EDGE('',*,*,#83,.F.) ;
#473=ORIENTED_EDGE('',*,*,#209,.F.) ;
#474=ORIENTED_EDGE('',*,*,#185,.F.) ;
#477=ORIENTED_EDGE('',*,*,#152,.F.) ;
#478=ORIENTED_EDGE('',*,*,#128,.F.) ;
#492=ORIENTED_EDGE('',*,*,#490,.F.) ;
#493=ORIENTED_EDGE('',*,*,#440,.F.) ;
#494=ORIENTED_EDGE('',*,*,#373,.F.) ;
#495=ORIENTED_EDGE('',*,*,#347,.F.) ;
#496=ORIENTED_EDGE('',*,*,#304,.F.) ;
#497=ORIENTED_EDGE('',*,*,#285,.F.) ;
#498=ORIENTED_EDGE('',*,*,#249,.F.) ;
#499=ORIENTED_EDGE('',*,*,#404,.F.) ;
#502=ORIENTED_EDGE('',*,*,#71,.T.) ;
#503=ORIENTED_EDGE('',*,*,#95,.T.) ;
#506=ORIENTED_EDGE('',*,*,#197,.T.) ;
#507=ORIENTED_EDGE('',*,*,#214,.T.) ;
#510=ORIENTED_EDGE('',*,*,#140,.T.) ;
#511=ORIENTED_EDGE('',*,*,#157,.T.) ;
#520=ORIENTED_EDGE('',*,*,#430,.F.) ;
#521=ORIENTED_EDGE('',*,*,#490,.T.) ;
#522=ORIENTED_EDGE('',*,*,#399,.T.) ;
#523=ORIENTED_EDGE('',*,*,#457,.T.) ;
#471=FACE_BOUND('',#468,.T.) ;
#475=FACE_BOUND('',#472,.T.) ;
#479=FACE_BOUND('',#476,.T.) ;
#504=FACE_BOUND('',#501,.T.) ;
#508=FACE_BOUND('',#505,.T.) ;
#512=FACE_BOUND('',#509,.T.) ;
#50=CLOSED_SHELL('Closed Shell',(#90,#107,#147,#164,#204,#221,#261,#292,#323,#354,#385,#416,#447,#480,#513,#525)) ;
#58=VECTOR('Line Direction',#57,1.) ;
#74=VECTOR('Line Direction',#73,1.) ;
#115=VECTOR('Line Direction',#114,1.) ;
#131=VECTOR('Line Direction',#130,1.) ;
#172=VECTOR('Line Direction',#171,1.) ;
#188=VECTOR('Line Direction',#187,1.) ;
#229=VECTOR('Line Direction',#228,1.) ;
#238=VECTOR('Line Direction',#237,1.) ;
#245=VECTOR('Line Direction',#244,1.) ;
#252=VECTOR('Line Direction',#251,1.) ;
#269=VECTOR('Line Direction',#268,1.) ;
#278=VECTOR('Line Direction',#277,1.) ;
#283=VECTOR('Line Direction',#282,1.) ;
#300=VECTOR('Line Direction',#299,1.) ;
#307=VECTOR('Line Direction',#306,1.) ;
#314=VECTOR('Line Direction',#313,1.) ;
#331=VECTOR('Line Direction',#330,1.) ;
#340=VECTOR('Line Direction',#339,1.) ;
#345=VECTOR('Line Direction',#344,1.) ;
#362=VECTOR('Line Direction',#361,1.) ;
#369=VECTOR('Line Direction',#368,1.) ;
#376=VECTOR('Line Direction',#375,1.) ;
#393=VECTOR('Line Direction',#392,1.) ;
#402=VECTOR('Line Direction',#401,1.) ;
#407=VECTOR('Line Direction',#406,1.) ;
#424=VECTOR('Line Direction',#423,1.) ;
#433=VECTOR('Line Direction',#432,1.) ;
#438=VECTOR('Line Direction',#437,1.) ;
#455=VECTOR('Line Direction',#454,1.) ;
#488=VECTOR('Line Direction',#487,1.) ;
#527=ADVANCED_BREP_SHAPE_REPRESENTATION('NONE',(#526),#45) ;
#48=SHAPE_REPRESENTATION(' ',(#47),#45) ;
#90=ADVANCED_FACE('Corps principal',(#89),#55,.F.) ;
#107=ADVANCED_FACE('Corps principal',(#106),#55,.F.) ;
#147=ADVANCED_FACE('Corps principal',(#146),#112,.F.) ;
#164=ADVANCED_FACE('Corps principal',(#163),#112,.F.) ;
#204=ADVANCED_FACE('Corps principal',(#203),#169,.F.) ;
#221=ADVANCED_FACE('Corps principal',(#220),#169,.F.) ;
#261=ADVANCED_FACE('Corps principal',(#260),#226,.T.) ;
#292=ADVANCED_FACE('Corps principal',(#291),#266,.F.) ;
#323=ADVANCED_FACE('Corps principal',(#322),#297,.F.) ;
#354=ADVANCED_FACE('Corps principal',(#353),#328,.F.) ;
#385=ADVANCED_FACE('Corps principal',(#384),#359,.T.) ;
#416=ADVANCED_FACE('Corps principal',(#415),#390,.F.) ;
#447=ADVANCED_FACE('Corps principal',(#446),#421,.F.) ;
#480=ADVANCED_FACE('Corps principal',(#467,#471,#475,#479),#452,.T.) ;
#513=ADVANCED_FACE('Corps principal',(#500,#504,#508,#512),#485,.F.) ;
#525=ADVANCED_FACE('Corps principal',(#524),#518,.F.) ;
#4=APPLICATION_PROTOCOL_DEFINITION('international standard','config_control_design',1994,#1) ;
#32=APPROVAL_DATE_TIME(#13,#21) ;
#526=MANIFOLD_SOLID_BREP('Corps principal',#50) ;
#11=CALENDAR_DATE(2022,8,2) ;
#30=CC_DESIGN_APPROVAL(#21,(#16,#6,#14)) ;
#18=CC_DESIGN_DATE_AND_TIME_ASSIGNMENT(#13,#17,(#16)) ;
#29=CC_DESIGN_DATE_AND_TIME_ASSIGNMENT(#13,#28,(#14)) ;
#17=DATE_TIME_ROLE('classification_date') ;
#28=DATE_TIME_ROLE('creation_date') ;
#27=CC_DESIGN_PERSON_AND_ORGANIZATION_ASSIGNMENT(#25,#26,(#16)) ;
#33=CC_DESIGN_PERSON_AND_ORGANIZATION_ASSIGNMENT(#25,#34,(#6)) ;
#35=CC_DESIGN_PERSON_AND_ORGANIZATION_ASSIGNMENT(#25,#36,(#6,#14)) ;
#37=CC_DESIGN_PERSON_AND_ORGANIZATION_ASSIGNMENT(#25,#38,(#5)) ;
#26=PERSON_AND_ORGANIZATION_ROLE('classification_officer') ;
#34=PERSON_AND_ORGANIZATION_ROLE('design_supplier') ;
#36=PERSON_AND_ORGANIZATION_ROLE('creator') ;
#38=PERSON_AND_ORGANIZATION_ROLE('design_owner') ;
#39=CC_DESIGN_SECURITY_CLASSIFICATION(#16,(#6)) ;
#68=CIRCLE('generated circle',#67,1.2295) ;
#82=CIRCLE('generated circle',#81,1.2295) ;
#94=CIRCLE('generated circle',#93,1.2295) ;
#99=CIRCLE('generated circle',#98,1.2295) ;
#125=CIRCLE('generated circle',#124,3.3235) ;
#139=CIRCLE('generated circle',#138,3.3235) ;
#151=CIRCLE('generated circle',#150,3.3235) ;
#156=CIRCLE('generated circle',#155,3.3235) ;
#182=CIRCLE('generated circle',#181,3.3235) ;
#196=CIRCLE('generated circle',#195,3.3235) ;
#208=CIRCLE('generated circle',#207,3.3235) ;
#213=CIRCLE('generated circle',#212,3.3235) ;
#528=SHAPE_REPRESENTATION_RELATIONSHIP(' ',' ',#48,#527) ;
#55=CYLINDRICAL_SURFACE('generated cylinder',#54,1.2295) ;
#112=CYLINDRICAL_SURFACE('generated cylinder',#111,3.3235) ;
#169=CYLINDRICAL_SURFACE('generated cylinder',#168,3.3235) ;
#3=DESIGN_CONTEXT(' ',#1,'design') ;
#64=EDGE_CURVE('',#61,#63,#59,.F.) ;
#71=EDGE_CURVE('',#70,#61,#68,.F.) ;
#78=EDGE_CURVE('',#70,#77,#75,.F.) ;
#83=EDGE_CURVE('',#77,#63,#82,.F.) ;
#95=EDGE_CURVE('',#61,#70,#94,.F.) ;
#100=EDGE_CURVE('',#63,#77,#99,.F.) ;
#121=EDGE_CURVE('',#118,#120,#116,.F.) ;
#128=EDGE_CURVE('',#118,#127,#125,.T.) ;
#135=EDGE_CURVE('',#127,#134,#132,.F.) ;
#140=EDGE_CURVE('',#120,#134,#139,.T.) ;
#152=EDGE_CURVE('',#127,#118,#151,.T.) ;
#157=EDGE_CURVE('',#134,#120,#156,.T.) ;
#178=EDGE_CURVE('',#175,#177,#173,.F.) ;
#185=EDGE_CURVE('',#175,#184,#182,.T.) ;
#192=EDGE_CURVE('',#184,#191,#189,.F.) ;
#197=EDGE_CURVE('',#177,#191,#196,.T.) ;
#209=EDGE_CURVE('',#184,#175,#208,.T.) ;
#214=EDGE_CURVE('',#191,#177,#213,.T.) ;
#235=EDGE_CURVE('',#232,#234,#230,.T.) ;
#242=EDGE_CURVE('',#241,#234,#239,.T.) ;
#249=EDGE_CURVE('',#241,#248,#246,.F.) ;
#254=EDGE_CURVE('',#248,#232,#253,.T.) ;
#275=EDGE_CURVE('',#272,#274,#270,.T.) ;
#280=EDGE_CURVE('',#232,#274,#279,.F.) ;
#285=EDGE_CURVE('',#248,#272,#284,.F.) ;
#304=EDGE_CURVE('',#272,#303,#301,.T.) ;
#311=EDGE_CURVE('',#303,#310,#308,.T.) ;
#316=EDGE_CURVE('',#310,#274,#315,.F.) ;
#337=EDGE_CURVE('',#334,#336,#332,.T.) ;
#342=EDGE_CURVE('',#310,#336,#341,.F.) ;
#347=EDGE_CURVE('',#303,#334,#346,.F.) ;
#366=EDGE_CURVE('',#365,#336,#363,.T.) ;
#373=EDGE_CURVE('',#334,#372,#370,.F.) ;
#378=EDGE_CURVE('',#372,#365,#377,.T.) ;
#399=EDGE_CURVE('',#396,#398,#394,.T.) ;
#404=EDGE_CURVE('',#396,#241,#403,.F.) ;
#409=EDGE_CURVE('',#398,#234,#408,.F.) ;
#430=EDGE_CURVE('',#427,#429,#425,.T.) ;
#435=EDGE_CURVE('',#365,#429,#434,.F.) ;
#440=EDGE_CURVE('',#372,#427,#439,.F.) ;
#457=EDGE_CURVE('',#398,#429,#456,.F.) ;
#490=EDGE_CURVE('',#427,#396,#489,.T.) ;
#84=EDGE_LOOP('',(#85,#86,#87,#88)) ;
#101=EDGE_LOOP('',(#102,#103,#104,#105)) ;
#141=EDGE_LOOP('',(#142,#143,#144,#145)) ;
#158=EDGE_LOOP('',(#159,#160,#161,#162)) ;
#198=EDGE_LOOP('',(#199,#200,#201,#202)) ;
#215=EDGE_LOOP('',(#216,#217,#218,#219)) ;
#255=EDGE_LOOP('',(#256,#257,#258,#259)) ;
#286=EDGE_LOOP('',(#287,#288,#289,#290)) ;
#317=EDGE_LOOP('',(#318,#319,#320,#321)) ;
#348=EDGE_LOOP('',(#349,#350,#351,#352)) ;
#379=EDGE_LOOP('',(#380,#381,#382,#383)) ;
#410=EDGE_LOOP('',(#411,#412,#413,#414)) ;
#441=EDGE_LOOP('',(#442,#443,#444,#445)) ;
#458=EDGE_LOOP('',(#459,#460,#461,#462,#463,#464,#465,#466)) ;
#468=EDGE_LOOP('',(#469,#470)) ;
#472=EDGE_LOOP('',(#473,#474)) ;
#476=EDGE_LOOP('',(#477,#478)) ;
#491=EDGE_LOOP('',(#492,#493,#494,#495,#496,#497,#498,#499)) ;
#501=EDGE_LOOP('',(#502,#503)) ;
#505=EDGE_LOOP('',(#506,#507)) ;
#509=EDGE_LOOP('',(#510,#511)) ;
#519=EDGE_LOOP('',(#520,#521,#522,#523)) ;
#89=FACE_OUTER_BOUND('',#84,.T.) ;
#106=FACE_OUTER_BOUND('',#101,.T.) ;
#146=FACE_OUTER_BOUND('',#141,.T.) ;
#163=FACE_OUTER_BOUND('',#158,.T.) ;
#203=FACE_OUTER_BOUND('',#198,.T.) ;
#220=FACE_OUTER_BOUND('',#215,.T.) ;
#260=FACE_OUTER_BOUND('',#255,.T.) ;
#291=FACE_OUTER_BOUND('',#286,.T.) ;
#322=FACE_OUTER_BOUND('',#317,.T.) ;
#353=FACE_OUTER_BOUND('',#348,.T.) ;
#384=FACE_OUTER_BOUND('',#379,.T.) ;
#415=FACE_OUTER_BOUND('',#410,.T.) ;
#446=FACE_OUTER_BOUND('',#441,.T.) ;
#467=FACE_OUTER_BOUND('',#458,.T.) ;
#500=FACE_OUTER_BOUND('',#491,.T.) ;
#524=FACE_OUTER_BOUND('',#519,.T.) ;
#44=UNCERTAINTY_MEASURE_WITH_UNIT(LENGTH_MEASURE(0.005),#41,'distance_accuracy_value','CONFUSED CURVE UNCERTAINTY') ;
#59=LINE('Line',#56,#58) ;
#75=LINE('Line',#72,#74) ;
#116=LINE('Line',#113,#115) ;
#132=LINE('Line',#129,#131) ;
#173=LINE('Line',#170,#172) ;
#189=LINE('Line',#186,#188) ;
#230=LINE('Line',#227,#229) ;
#239=LINE('Line',#236,#238) ;
#246=LINE('Line',#243,#245) ;
#253=LINE('Line',#250,#252) ;
#270=LINE('Line',#267,#269) ;
#279=LINE('Line',#276,#278) ;
#284=LINE('Line',#281,#283) ;
#301=LINE('Line',#298,#300) ;
#308=LINE('Line',#305,#307) ;
#315=LINE('Line',#312,#314) ;
#332=LINE('Line',#329,#331) ;
#341=LINE('Line',#338,#340) ;
#346=LINE('Line',#343,#345) ;
#363=LINE('Line',#360,#362) ;
#370=LINE('Line',#367,#369) ;
#377=LINE('Line',#374,#376) ;
#394=LINE('Line',#391,#393) ;
#403=LINE('Line',#400,#402) ;
#408=LINE('Line',#405,#407) ;
#425=LINE('Line',#422,#424) ;
#434=LINE('Line',#431,#433) ;
#439=LINE('Line',#436,#438) ;
#456=LINE('Line',#453,#455) ;
#489=LINE('Line',#486,#488) ;
#2=MECHANICAL_CONTEXT(' ',#1,'mechanical') ;
#24=PERSONAL_ADDRESS(' ',' ',' ',' ',' ',' ',' ',' ',' ',' ',' ',' ',(#22),' ') ;
#226=PLANE('',#225) ;
#266=PLANE('',#265) ;
#297=PLANE('',#296) ;
#328=PLANE('',#327) ;
#359=PLANE('',#358) ;
#390=PLANE('',#389) ;
#421=PLANE('',#420) ;
#452=PLANE('',#451) ;
#485=PLANE('',#484) ;
#518=PLANE('',#517) ;
#7=PRODUCT_CATEGORY('part',$) ;
#9=PRODUCT_CATEGORY_RELATIONSHIP(' ',' ',#7,#8) ;
#6=PRODUCT_DEFINITION_FORMATION_WITH_SPECIFIED_SOURCE('',' ',#5,.NOT_KNOWN.) ;
#8=PRODUCT_RELATED_PRODUCT_CATEGORY('detail',$,(#5)) ;
#49=SHAPE_DEFINITION_REPRESENTATION(#40,#48) ;
#61=VERTEX_POINT('',#60) ;
#63=VERTEX_POINT('',#62) ;
#70=VERTEX_POINT('',#69) ;
#77=VERTEX_POINT('',#76) ;
#118=VERTEX_POINT('',#117) ;
#120=VERTEX_POINT('',#119) ;
#127=VERTEX_POINT('',#126) ;
#134=VERTEX_POINT('',#133) ;
#175=VERTEX_POINT('',#174) ;
#177=VERTEX_POINT('',#176) ;
#184=VERTEX_POINT('',#183) ;
#191=VERTEX_POINT('',#190) ;
#232=VERTEX_POINT('',#231) ;
#234=VERTEX_POINT('',#233) ;
#241=VERTEX_POINT('',#240) ;
#248=VERTEX_POINT('',#247) ;
#272=VERTEX_POINT('',#271) ;
#274=VERTEX_POINT('',#273) ;
#303=VERTEX_POINT('',#302) ;
#310=VERTEX_POINT('',#309) ;
#334=VERTEX_POINT('',#333) ;
#336=VERTEX_POINT('',#335) ;
#365=VERTEX_POINT('',#364) ;
#372=VERTEX_POINT('',#371) ;
#396=VERTEX_POINT('',#395) ;
#398=VERTEX_POINT('',#397) ;
#427=VERTEX_POINT('',#426) ;
#429=VERTEX_POINT('',#428) ;
#41=(LENGTH_UNIT()NAMED_UNIT(*)SI_UNIT(.MILLI.,.METRE.)) ;
#42=(NAMED_UNIT(*)PLANE_ANGLE_UNIT()SI_UNIT($,.RADIAN.)) ;
#43=(NAMED_UNIT(*)SI_UNIT($,.STERADIAN.)SOLID_ANGLE_UNIT()) ;
#45=(GEOMETRIC_REPRESENTATION_CONTEXT(3)GLOBAL_UNCERTAINTY_ASSIGNED_CONTEXT((#44))GLOBAL_UNIT_ASSIGNED_CONTEXT((#41,#42,#43))REPRESENTATION_CONTEXT(' ',' ')) ;
ENDSEC;
END-ISO-10303-21;
