ISO-10303-21;
HEADER;
FILE_DESCRIPTION (( 'STEP AP214' ),
    '1' );
FILE_NAME ('Entretoise_11x15x9.STEP',
    '2022-01-14T14:50:13',
    ( '' ),
    ( '' ),
    'SwSTEP 2.0',
    'SolidWorks 2021',
    '' );
FILE_SCHEMA (( 'AUTOMOTIVE_DESIGN' ));
ENDSEC;

DATA;
#1 = FILL_AREA_STYLE ('',( #188 ) ) ;
#2 = EDGE_CURVE ( 'NONE', #116, #201, #66, .T. ) ;
#3 = DIRECTION ( 'NONE',  ( 0.000000000000000000, 0.000000000000000000, 1.000000000000000000 ) ) ;
#4 = PLANE ( 'NONE',  #152 ) ;
#5 = FACE_BOUND ( 'NONE', #131, .T. ) ;
#6 = CARTESIAN_POINT ( 'NONE',  ( 0.000000000000000000, -72.58622657460934136, 9.000000000000000000 ) ) ;
#7 = AXIS2_PLACEMENT_3D ( 'NONE', #120, #137, #39 ) ;
#8 =( NAMED_UNIT ( * ) SI_UNIT ( $, .STERADIAN. ) SOLID_ANGLE_UNIT ( ) );
#9 = ADVANCED_FACE ( 'NONE', ( #85 ), #34, .F. ) ;
#10 = CLOSED_SHELL ( 'NONE', ( #184, #42, #23, #61, #88, #9 ) ) ;
#11 = CARTESIAN_POINT ( 'NONE',  ( 0.000000000000000000, -72.58622657460934136, 9.000000000000000000 ) ) ;
#12 = DIRECTION ( 'NONE',  ( -1.000000000000000000, 0.000000000000000000, 0.000000000000000000 ) ) ;
#13 = DIRECTION ( 'NONE',  ( 0.000000000000000000, 0.000000000000000000, 1.000000000000000000 ) ) ;
#14 = ORIENTED_EDGE ( 'NONE', *, *, #210, .F. ) ;
#15 = VERTEX_POINT ( 'NONE', #153 ) ;
#16 = DIRECTION ( 'NONE',  ( -0.000000000000000000, -0.000000000000000000, -1.000000000000000000 ) ) ;
#17 = CARTESIAN_POINT ( 'NONE',  ( 0.000000000000000000, -72.58622657460934136, 0.000000000000000000 ) ) ;
#18 = PRESENTATION_LAYER_ASSIGNMENT (  '', '', ( #135 ) ) ;
#19 = VECTOR ( 'NONE', #187, 1000.000000000000000 ) ;
#20 = CARTESIAN_POINT ( 'NONE',  ( -5.499999999999998224, -72.58622657460934136, 9.000000000000000000 ) ) ;
#21 = DIRECTION ( 'NONE',  ( 0.000000000000000000, 0.000000000000000000, 1.000000000000000000 ) ) ;
#22 = DIRECTION ( 'NONE',  ( -1.000000000000000000, 0.000000000000000000, 0.000000000000000000 ) ) ;
#23 = ADVANCED_FACE ( 'NONE', ( #45, #181 ), #99, .T. ) ;
#24 = SURFACE_STYLE_USAGE ( .BOTH. , #40 ) ;
#25 = EDGE_CURVE ( 'NONE', #166, #15, #170, .T. ) ;
#26 = CARTESIAN_POINT ( 'NONE',  ( -7.500000000000001776, -72.58622657460934136, 9.000000000000000000 ) ) ;
#27 = VECTOR ( 'NONE', #121, 1000.000000000000000 ) ;
#28 = VERTEX_POINT ( 'NONE', #190 ) ;
#29 = ORIENTED_EDGE ( 'NONE', *, *, #48, .T. ) ;
#30 = EDGE_LOOP ( 'NONE', ( #199, #169 ) ) ;
#31 = EDGE_CURVE ( 'NONE', #65, #28, #179, .T. ) ;
#32 = ADVANCED_BREP_SHAPE_REPRESENTATION ( 'Entretoise_11x15x9', ( #126, #57 ), #143 ) ;
#33 = ORIENTED_EDGE ( 'NONE', *, *, #130, .T. ) ;
#34 = CYLINDRICAL_SURFACE ( 'NONE', #87, 5.499999999999998224 ) ;
#35 =( NAMED_UNIT ( * ) PLANE_ANGLE_UNIT ( ) SI_UNIT ( $, .RADIAN. ) );
#36 = PRODUCT_DEFINITION_SHAPE ( 'NONE', 'NONE',  #105 ) ;
#37 = EDGE_CURVE ( 'NONE', #28, #65, #59, .T. ) ;
#38 = DIRECTION ( 'NONE',  ( 0.000000000000000000, 0.000000000000000000, 1.000000000000000000 ) ) ;
#39 = DIRECTION ( 'NONE',  ( 1.000000000000000000, 0.000000000000000000, 0.000000000000000000 ) ) ;
#40 = SURFACE_SIDE_STYLE ('',( #125 ) ) ;
#41 = DIRECTION ( 'NONE',  ( 0.000000000000000000, 0.000000000000000000, 1.000000000000000000 ) ) ;
#42 = ADVANCED_FACE ( 'NONE', ( #92 ), #104, .T. ) ;
#43 = VERTEX_POINT ( 'NONE', #20 ) ;
#44 = EDGE_LOOP ( 'NONE', ( #183, #198 ) ) ;
#45 = FACE_OUTER_BOUND ( 'NONE', #30, .T. ) ;
#46 = ORIENTED_EDGE ( 'NONE', *, *, #25, .F. ) ;
#47 = PRESENTATION_STYLE_ASSIGNMENT (( #75 ) ) ;
#48 = EDGE_CURVE ( 'NONE', #43, #65, #203, .T. ) ;
#49 = CARTESIAN_POINT ( 'NONE',  ( 0.000000000000000000, -72.58622657460934136, 0.000000000000000000 ) ) ;
#50 = CARTESIAN_POINT ( 'NONE',  ( 0.000000000000000000, -72.58622657460934136, 9.000000000000000000 ) ) ;
#51 = AXIS2_PLACEMENT_3D ( 'NONE', #164, #13, #62 ) ;
#52 = DIRECTION ( 'NONE',  ( 0.000000000000000000, 0.000000000000000000, 1.000000000000000000 ) ) ;
#53 = EDGE_CURVE ( 'NONE', #201, #116, #194, .T. ) ;
#54 = EDGE_CURVE ( 'NONE', #43, #168, #150, .T. ) ;
#55 = FACE_OUTER_BOUND ( 'NONE', #129, .T. ) ;
#56 =( LENGTH_UNIT ( ) NAMED_UNIT ( * ) SI_UNIT ( .MILLI., .METRE. ) );
#57 = AXIS2_PLACEMENT_3D ( 'NONE', #162, #41, #193 ) ;
#58 = APPLICATION_CONTEXT ( 'automotive_design' ) ;
#59 = CIRCLE ( 'NONE', #95, 5.499999999999998224 ) ;
#60 = ORIENTED_EDGE ( 'NONE', *, *, #182, .F. ) ;
#61 = ADVANCED_FACE ( 'NONE', ( #177, #5 ), #4, .F. ) ;
#62 = DIRECTION ( 'NONE',  ( 1.000000000000000000, 0.000000000000000000, -0.000000000000000000 ) ) ;
#63 = MECHANICAL_DESIGN_GEOMETRIC_PRESENTATION_REPRESENTATION (  '', ( #192 ), #154 ) ;
#64 = PRODUCT_RELATED_PRODUCT_CATEGORY ( 'part', '', ( #118 ) ) ;
#65 = VERTEX_POINT ( 'NONE', #138 ) ;
#66 = CIRCLE ( 'NONE', #149, 7.500000000000001776 ) ;
#67 = ORIENTED_EDGE ( 'NONE', *, *, #54, .T. ) ;
#68 = VECTOR ( 'NONE', #82, 1000.000000000000000 ) ;
#69 = EDGE_LOOP ( 'NONE', ( #111, #171, #29, #148 ) ) ;
#70 = DIRECTION ( 'NONE',  ( 1.000000000000000000, 0.000000000000000000, 0.000000000000000000 ) ) ;
#71 = DIRECTION ( 'NONE',  ( 1.000000000000000000, 0.000000000000000000, 0.000000000000000000 ) ) ;
#72 = AXIS2_PLACEMENT_3D ( 'NONE', #205, #52, #108 ) ;
#73 = CARTESIAN_POINT ( 'NONE',  ( 5.499999999999998224, -72.58622657460934136, 9.000000000000000000 ) ) ;
#74 = PRODUCT_DEFINITION_FORMATION_WITH_SPECIFIED_SOURCE ( 'ANY', '', #118, .NOT_KNOWN. ) ;
#75 = SURFACE_STYLE_USAGE ( .BOTH. , #157 ) ;
#76 = APPLICATION_CONTEXT ( 'automotive_design' ) ;
#77 = AXIS2_PLACEMENT_3D ( 'NONE', #145, #197, #158 ) ;
#78 = CYLINDRICAL_SURFACE ( 'NONE', #175, 7.500000000000001776 ) ;
#79 = FILL_AREA_STYLE_COLOUR ( '', #163 ) ;
#80 = LINE ( 'NONE', #83, #127 ) ;
#81 = AXIS2_PLACEMENT_3D ( 'NONE', #106, #16, #172 ) ;
#82 = DIRECTION ( 'NONE',  ( -0.000000000000000000, -0.000000000000000000, -1.000000000000000000 ) ) ;
#83 = CARTESIAN_POINT ( 'NONE',  ( 7.500000000000001776, -72.58622657460934136, 9.000000000000000000 ) ) ;
#84 = CARTESIAN_POINT ( 'NONE',  ( 0.000000000000000000, -72.58622657460934136, 9.000000000000000000 ) ) ;
#85 = FACE_OUTER_BOUND ( 'NONE', #69, .T. ) ;
#86 = DIRECTION ( 'NONE',  ( 1.000000000000000000, 0.000000000000000000, 0.000000000000000000 ) ) ;
#87 = AXIS2_PLACEMENT_3D ( 'NONE', #84, #200, #212 ) ;
#88 = ADVANCED_FACE ( 'NONE', ( #155 ), #78, .T. ) ;
#89 = ORIENTED_EDGE ( 'NONE', *, *, #109, .T. ) ;
#90 = UNCERTAINTY_MEASURE_WITH_UNIT (LENGTH_MEASURE( 1.000000000000000082E-05 ), #94, 'distance_accuracy_value', 'NONE');
#91 = DIRECTION ( 'NONE',  ( 1.000000000000000000, 0.000000000000000000, 0.000000000000000000 ) ) ;
#92 = FACE_OUTER_BOUND ( 'NONE', #213, .T. ) ;
#93 = DIRECTION ( 'NONE',  ( -0.000000000000000000, -0.000000000000000000, -1.000000000000000000 ) ) ;
#94 =( LENGTH_UNIT ( ) NAMED_UNIT ( * ) SI_UNIT ( .MILLI., .METRE. ) );
#95 = AXIS2_PLACEMENT_3D ( 'NONE', #49, #156, #71 ) ;
#96 = APPLICATION_PROTOCOL_DEFINITION ( 'draft international standard', 'automotive_design', 1998, #58 ) ;
#97 =( NAMED_UNIT ( * ) PLANE_ANGLE_UNIT ( ) SI_UNIT ( $, .RADIAN. ) );
#98 = UNCERTAINTY_MEASURE_WITH_UNIT (LENGTH_MEASURE( 1.000000000000000082E-05 ), #56, 'distance_accuracy_value', 'NONE');
#99 = PLANE ( 'NONE',  #51 ) ;
#100 = ORIENTED_EDGE ( 'NONE', *, *, #37, .T. ) ;
#101 = ORIENTED_EDGE ( 'NONE', *, *, #31, .F. ) ;
#102 = ORIENTED_EDGE ( 'NONE', *, *, #182, .T. ) ;
#103 = ORIENTED_EDGE ( 'NONE', *, *, #31, .T. ) ;
#104 = CYLINDRICAL_SURFACE ( 'NONE', #81, 7.500000000000001776 ) ;
#105 = PRODUCT_DEFINITION ( 'UNKNOWN', '', #74, #196 ) ;
#106 = CARTESIAN_POINT ( 'NONE',  ( 0.000000000000000000, -72.58622657460934136, 9.000000000000000000 ) ) ;
#107 = CARTESIAN_POINT ( 'NONE',  ( 7.500000000000001776, -72.58622657460934136, 9.000000000000000000 ) ) ;
#108 = DIRECTION ( 'NONE',  ( 1.000000000000000000, 0.000000000000000000, 0.000000000000000000 ) ) ;
#109 = EDGE_CURVE ( 'NONE', #168, #28, #202, .T. ) ;
#110 = CARTESIAN_POINT ( 'NONE',  ( -7.500000000000001776, -72.58622657460934136, 9.000000000000000000 ) ) ;
#111 = ORIENTED_EDGE ( 'NONE', *, *, #109, .F. ) ;
#112 = EDGE_LOOP ( 'NONE', ( #14, #211, #102, #186 ) ) ;
#113 = CARTESIAN_POINT ( 'NONE',  ( 0.000000000000000000, -72.58622657460934136, 9.000000000000000000 ) ) ;
#114 = AXIS2_PLACEMENT_3D ( 'NONE', #17, #3, #136 ) ;
#115 = PRESENTATION_LAYER_ASSIGNMENT (  '', '', ( #192 ) ) ;
#116 = VERTEX_POINT ( 'NONE', #107 ) ;
#117 = DIRECTION ( 'NONE',  ( 1.000000000000000000, 0.000000000000000000, -0.000000000000000000 ) ) ;
#118 = PRODUCT ( 'Entretoise_11x15x9', 'Entretoise_11x15x9', '', ( #159 ) ) ;
#119 = DIRECTION ( 'NONE',  ( 0.000000000000000000, 0.000000000000000000, 1.000000000000000000 ) ) ;
#120 = CARTESIAN_POINT ( 'NONE',  ( 0.000000000000000000, -72.58622657460934136, 0.000000000000000000 ) ) ;
#121 = DIRECTION ( 'NONE',  ( -0.000000000000000000, -0.000000000000000000, -1.000000000000000000 ) ) ;
#122 = PRESENTATION_STYLE_ASSIGNMENT (( #24 ) ) ;
#123 = COLOUR_RGB ( '',0.7921568627450980005, 0.8196078431372548767, 0.9333333333333333481 ) ;
#124 = DIRECTION ( 'NONE',  ( -0.000000000000000000, -0.000000000000000000, -1.000000000000000000 ) ) ;
#125 = SURFACE_STYLE_FILL_AREA ( #161 ) ;
#126 = MANIFOLD_SOLID_BREP ( 'Boss.-Extru.1', #10 ) ;
#127 = VECTOR ( 'NONE', #195, 1000.000000000000000 ) ;
#128 = ORIENTED_EDGE ( 'NONE', *, *, #130, .F. ) ;
#129 = EDGE_LOOP ( 'NONE', ( #67, #89, #101, #214 ) ) ;
#130 = EDGE_CURVE ( 'NONE', #15, #166, #139, .T. ) ;
#131 = EDGE_LOOP ( 'NONE', ( #103, #100 ) ) ;
#132 = DIRECTION ( 'NONE',  ( 0.000000000000000000, 0.000000000000000000, 1.000000000000000000 ) ) ;
#133 = UNCERTAINTY_MEASURE_WITH_UNIT (LENGTH_MEASURE( 1.000000000000000082E-05 ), #144, 'distance_accuracy_value', 'NONE');
#134 = SURFACE_STYLE_FILL_AREA ( #1 ) ;
#135 = STYLED_ITEM ( 'NONE', ( #47 ), #126 ) ;
#136 = DIRECTION ( 'NONE',  ( 1.000000000000000000, 0.000000000000000000, 0.000000000000000000 ) ) ;
#137 = DIRECTION ( 'NONE',  ( 0.000000000000000000, 0.000000000000000000, 1.000000000000000000 ) ) ;
#138 = CARTESIAN_POINT ( 'NONE',  ( -5.499999999999998224, -72.58622657460934136, 0.000000000000000000 ) ) ;
#139 = CIRCLE ( 'NONE', #114, 7.500000000000001776 ) ;
#140 = APPLICATION_PROTOCOL_DEFINITION ( 'draft international standard', 'automotive_design', 1998, #76 ) ;
#141 = MECHANICAL_DESIGN_GEOMETRIC_PRESENTATION_REPRESENTATION (  '', ( #135 ), #165 ) ;
#142 = SHAPE_DEFINITION_REPRESENTATION ( #36, #32 ) ;
#143 =( GEOMETRIC_REPRESENTATION_CONTEXT ( 3 ) GLOBAL_UNCERTAINTY_ASSIGNED_CONTEXT ( ( #98 ) ) GLOBAL_UNIT_ASSIGNED_CONTEXT ( ( #56, #97, #8 ) ) REPRESENTATION_CONTEXT ( 'NONE', 'WORKASPACE' ) );
#144 =( LENGTH_UNIT ( ) NAMED_UNIT ( * ) SI_UNIT ( .MILLI., .METRE. ) );
#145 = CARTESIAN_POINT ( 'NONE',  ( 0.000000000000000000, -72.58622657460934136, 0.000000000000000000 ) ) ;
#146 = AXIS2_PLACEMENT_3D ( 'NONE', #11, #124, #12 ) ;
#147 = ORIENTED_EDGE ( 'NONE', *, *, #210, .T. ) ;
#148 = ORIENTED_EDGE ( 'NONE', *, *, #37, .F. ) ;
#149 = AXIS2_PLACEMENT_3D ( 'NONE', #113, #132, #86 ) ;
#150 = CIRCLE ( 'NONE', #160, 5.499999999999998224 ) ;
#151 = ORIENTED_EDGE ( 'NONE', *, *, #2, .F. ) ;
#152 = AXIS2_PLACEMENT_3D ( 'NONE', #178, #21, #117 ) ;
#153 = CARTESIAN_POINT ( 'NONE',  ( 7.500000000000001776, -72.58622657460934136, 0.000000000000000000 ) ) ;
#154 =( GEOMETRIC_REPRESENTATION_CONTEXT ( 3 ) GLOBAL_UNCERTAINTY_ASSIGNED_CONTEXT ( ( #133 ) ) GLOBAL_UNIT_ASSIGNED_CONTEXT ( ( #144, #180, #207 ) ) REPRESENTATION_CONTEXT ( 'NONE', 'WORKASPACE' ) );
#155 = FACE_OUTER_BOUND ( 'NONE', #112, .T. ) ;
#156 = DIRECTION ( 'NONE',  ( 0.000000000000000000, 0.000000000000000000, 1.000000000000000000 ) ) ;
#157 = SURFACE_SIDE_STYLE ('',( #134 ) ) ;
#158 = DIRECTION ( 'NONE',  ( 1.000000000000000000, 0.000000000000000000, 0.000000000000000000 ) ) ;
#159 = PRODUCT_CONTEXT ( 'NONE', #58, 'mechanical' ) ;
#160 = AXIS2_PLACEMENT_3D ( 'NONE', #176, #38, #91 ) ;
#161 = FILL_AREA_STYLE ('',( #79 ) ) ;
#162 = CARTESIAN_POINT ( 'NONE',  ( 0.000000000000000000, 0.000000000000000000, 0.000000000000000000 ) ) ;
#163 = COLOUR_RGB ( '',0.7921568627450980005, 0.8196078431372548767, 0.9333333333333333481 ) ;
#164 = CARTESIAN_POINT ( 'NONE',  ( 0.000000000000000000, -72.58622657460934136, 9.000000000000000000 ) ) ;
#165 =( GEOMETRIC_REPRESENTATION_CONTEXT ( 3 ) GLOBAL_UNCERTAINTY_ASSIGNED_CONTEXT ( ( #90 ) ) GLOBAL_UNIT_ASSIGNED_CONTEXT ( ( #94, #35, #174 ) ) REPRESENTATION_CONTEXT ( 'NONE', 'WORKASPACE' ) );
#166 = VERTEX_POINT ( 'NONE', #189 ) ;
#167 = CIRCLE ( 'NONE', #72, 5.499999999999998224 ) ;
#168 = VERTEX_POINT ( 'NONE', #73 ) ;
#169 = ORIENTED_EDGE ( 'NONE', *, *, #2, .T. ) ;
#170 = CIRCLE ( 'NONE', #77, 7.500000000000001776 ) ;
#171 = ORIENTED_EDGE ( 'NONE', *, *, #173, .T. ) ;
#172 = DIRECTION ( 'NONE',  ( -1.000000000000000000, 0.000000000000000000, 0.000000000000000000 ) ) ;
#173 = EDGE_CURVE ( 'NONE', #168, #43, #167, .T. ) ;
#174 =( NAMED_UNIT ( * ) SI_UNIT ( $, .STERADIAN. ) SOLID_ANGLE_UNIT ( ) );
#175 = AXIS2_PLACEMENT_3D ( 'NONE', #6, #93, #22 ) ;
#176 = CARTESIAN_POINT ( 'NONE',  ( 0.000000000000000000, -72.58622657460934136, 9.000000000000000000 ) ) ;
#177 = FACE_OUTER_BOUND ( 'NONE', #185, .T. ) ;
#178 = CARTESIAN_POINT ( 'NONE',  ( 0.000000000000000000, -72.58622657460934136, 0.000000000000000000 ) ) ;
#179 = CIRCLE ( 'NONE', #7, 5.499999999999998224 ) ;
#180 =( NAMED_UNIT ( * ) PLANE_ANGLE_UNIT ( ) SI_UNIT ( $, .RADIAN. ) );
#181 = FACE_BOUND ( 'NONE', #44, .T. ) ;
#182 = EDGE_CURVE ( 'NONE', #201, #166, #209, .T. ) ;
#183 = ORIENTED_EDGE ( 'NONE', *, *, #54, .F. ) ;
#184 = ADVANCED_FACE ( 'NONE', ( #55 ), #208, .F. ) ;
#185 = EDGE_LOOP ( 'NONE', ( #46, #128 ) ) ;
#186 = ORIENTED_EDGE ( 'NONE', *, *, #25, .T. ) ;
#187 = DIRECTION ( 'NONE',  ( -0.000000000000000000, -0.000000000000000000, -1.000000000000000000 ) ) ;
#188 = FILL_AREA_STYLE_COLOUR ( '', #123 ) ;
#189 = CARTESIAN_POINT ( 'NONE',  ( -7.500000000000001776, -72.58622657460934136, 0.000000000000000000 ) ) ;
#190 = CARTESIAN_POINT ( 'NONE',  ( 5.499999999999998224, -72.58622657460934136, 0.000000000000000000 ) ) ;
#191 = AXIS2_PLACEMENT_3D ( 'NONE', #50, #119, #70 ) ;
#192 = STYLED_ITEM ( 'NONE', ( #122 ), #32 ) ;
#193 = DIRECTION ( 'NONE',  ( 1.000000000000000000, 0.000000000000000000, 0.000000000000000000 ) ) ;
#194 = CIRCLE ( 'NONE', #191, 7.500000000000001776 ) ;
#195 = DIRECTION ( 'NONE',  ( -0.000000000000000000, -0.000000000000000000, -1.000000000000000000 ) ) ;
#196 = PRODUCT_DEFINITION_CONTEXT ( 'detailed design', #76, 'design' ) ;
#197 = DIRECTION ( 'NONE',  ( 0.000000000000000000, 0.000000000000000000, 1.000000000000000000 ) ) ;
#198 = ORIENTED_EDGE ( 'NONE', *, *, #173, .F. ) ;
#199 = ORIENTED_EDGE ( 'NONE', *, *, #53, .T. ) ;
#200 = DIRECTION ( 'NONE',  ( -0.000000000000000000, -0.000000000000000000, -1.000000000000000000 ) ) ;
#201 = VERTEX_POINT ( 'NONE', #110 ) ;
#202 = LINE ( 'NONE', #206, #19 ) ;
#203 = LINE ( 'NONE', #204, #27 ) ;
#204 = CARTESIAN_POINT ( 'NONE',  ( -5.499999999999998224, -72.58622657460934136, 9.000000000000000000 ) ) ;
#205 = CARTESIAN_POINT ( 'NONE',  ( 0.000000000000000000, -72.58622657460934136, 9.000000000000000000 ) ) ;
#206 = CARTESIAN_POINT ( 'NONE',  ( 5.499999999999998224, -72.58622657460934136, 9.000000000000000000 ) ) ;
#207 =( NAMED_UNIT ( * ) SI_UNIT ( $, .STERADIAN. ) SOLID_ANGLE_UNIT ( ) );
#208 = CYLINDRICAL_SURFACE ( 'NONE', #146, 5.499999999999998224 ) ;
#209 = LINE ( 'NONE', #26, #68 ) ;
#210 = EDGE_CURVE ( 'NONE', #116, #15, #80, .T. ) ;
#211 = ORIENTED_EDGE ( 'NONE', *, *, #53, .F. ) ;
#212 = DIRECTION ( 'NONE',  ( -1.000000000000000000, 0.000000000000000000, 0.000000000000000000 ) ) ;
#213 = EDGE_LOOP ( 'NONE', ( #151, #147, #33, #60 ) ) ;
#214 = ORIENTED_EDGE ( 'NONE', *, *, #48, .F. ) ;
ENDSEC;
END-ISO-10303-21;
