ISO-10303-21;
HEADER;
FILE_DESCRIPTION (( 'STEP AP214' ),
    '1' );
FILE_NAME ('Bouchon.STEP',
    '2022-03-30T11:49:19',
    ( '' ),
    ( '' ),
    'SwSTEP 2.0',
    'SolidWorks 2020',
    '' );
FILE_SCHEMA (( 'AUTOMOTIVE_DESIGN' ));
ENDSEC;

DATA;
#1 = CARTESIAN_POINT ( 'NONE',  ( -1.438823713133379133E-16, 3.764024868136225828E-33, 0.000000000000000000 ) ) ;
#2 = EDGE_CURVE ( 'NONE', #157, #172, #307, .T. ) ;
#3 = VERTEX_POINT ( 'NONE', #400 ) ;
#4 = CARTESIAN_POINT ( 'NONE',  ( 9.000000000000000000, -2.354438803309165764E-16, 0.000000000000000000 ) ) ;
#5 = CARTESIAN_POINT ( 'NONE',  ( 9.000000000000000000, -2.354438803309165764E-16, 0.000000000000000000 ) ) ;
#6 = CIRCLE ( 'NONE', #396, 9.000000000000001776 ) ;
#7 = DIRECTION ( 'NONE',  ( 0.000000000000000000, 1.000000000000000000, 0.000000000000000000 ) ) ;
#8 = DIRECTION ( 'NONE',  ( 1.000000000000000000, -2.616043114787961891E-17, -0.000000000000000000 ) ) ;
#9 = CARTESIAN_POINT ( 'NONE',  ( -1.438823713133379133E-16, 5.268657637188765470E-33, 0.000000000000000000 ) ) ;
#10 = CONICAL_SURFACE ( 'NONE', #230, 11.00000000000000178, 0.7853981633974500554 ) ;
#11 = PRODUCT_CONTEXT ( 'NONE', #285, 'mechanical' ) ;
#12 = EDGE_LOOP ( 'NONE', ( #367, #353 ) ) ;
#13 = CIRCLE ( 'NONE', #231, 10.49999999999999645 ) ;
#14 = CARTESIAN_POINT ( 'NONE',  ( 0.5000000000000025535, 11.00000000000000178, 0.000000000000000000 ) ) ;
#15 = FACE_OUTER_BOUND ( 'NONE', #273, .T. ) ;
#16 = EDGE_LOOP ( 'NONE', ( #94, #170, #122, #67 ) ) ;
#17 = CARTESIAN_POINT ( 'NONE',  ( 3.149999999999999911, -8.240535811582081653E-17, 0.000000000000000000 ) ) ;
#18 = VERTEX_POINT ( 'NONE', #371 ) ;
#19 = CONICAL_SURFACE ( 'NONE', #348, 10.50000000000000178, 0.7853981633974430610 ) ;
#20 = DIRECTION ( 'NONE',  ( 3.942553354492742052E-17, 1.000000000000000000, 0.000000000000000000 ) ) ;
#21 = CIRCLE ( 'NONE', #271, 10.50000000000000178 ) ;
#22 = ADVANCED_FACE ( 'NONE', ( #99 ), #266, .T. ) ;
#23 = ORIENTED_EDGE ( 'NONE', *, *, #48, .F. ) ;
#24 = CYLINDRICAL_SURFACE ( 'NONE', #263, 9.000000000000001776 ) ;
#25 = ORIENTED_EDGE ( 'NONE', *, *, #233, .F. ) ;
#26 = DIRECTION ( 'NONE',  ( 2.956915015869557155E-17, 1.000000000000000000, 0.000000000000000000 ) ) ;
#27 = VERTEX_POINT ( 'NONE', #345 ) ;
#28 = PLANE ( 'NONE',  #77 ) ;
#29 = PRODUCT_DEFINITION_CONTEXT ( 'detailed design', #69, 'design' ) ;
#30 = AXIS2_PLACEMENT_3D ( 'NONE', #277, #253, #7 ) ;
#31 = VECTOR ( 'NONE', #97, 1000.000000000000000 ) ;
#32 = CARTESIAN_POINT ( 'NONE',  ( 9.000000000000000000, -10.50000000000000178, 0.000000000000000000 ) ) ;
#33 =( LENGTH_UNIT ( ) NAMED_UNIT ( * ) SI_UNIT ( .MILLI., .METRE. ) );
#34 = VERTEX_POINT ( 'NONE', #41 ) ;
#35 = FACE_OUTER_BOUND ( 'NONE', #393, .T. ) ;
#36 = DIRECTION ( 'NONE',  ( 1.000000000000000000, -2.616043114787961891E-17, -0.000000000000000000 ) ) ;
#37 = DIRECTION ( 'NONE',  ( -1.000000000000000000, 2.616043114787961891E-17, 0.000000000000000000 ) ) ;
#38 = CIRCLE ( 'NONE', #278, 10.50000000000000178 ) ;
#39 = DIRECTION ( 'NONE',  ( -1.000000000000000000, 2.616043114787961275E-17, 0.000000000000000000 ) ) ;
#40 = FACE_OUTER_BOUND ( 'NONE', #12, .T. ) ;
#41 = CARTESIAN_POINT ( 'NONE',  ( 5.849999999999999645, 9.000000000000001776, 0.000000000000000000 ) ) ;
#42 = APPLICATION_PROTOCOL_DEFINITION ( 'draft international standard', 'automotive_design', 1998, #69 ) ;
#43 = PRESENTATION_LAYER_ASSIGNMENT (  '', '', ( #201 ) ) ;
#44 = VECTOR ( 'NONE', #314, 1000.000000000000000 ) ;
#45 = CARTESIAN_POINT ( 'NONE',  ( 9.000000000000000000, 11.00000000000000355, 0.000000000000000000 ) ) ;
#46 = ORIENTED_EDGE ( 'NONE', *, *, #181, .T. ) ;
#47 = CARTESIAN_POINT ( 'NONE',  ( 5.849999999999999645, -1.530385222150957475E-16, 0.000000000000000000 ) ) ;
#48 = EDGE_CURVE ( 'NONE', #198, #212, #395, .T. ) ;
#49 = EDGE_LOOP ( 'NONE', ( #302, #325, #257, #335 ) ) ;
#50 = LINE ( 'NONE', #392, #246 ) ;
#51 = PRODUCT_DEFINITION_FORMATION_WITH_SPECIFIED_SOURCE ( 'ANY', '', #126, .NOT_KNOWN. ) ;
#52 = DIRECTION ( 'NONE',  ( -2.956915015869557155E-17, -1.000000000000000000, 0.000000000000000000 ) ) ;
#53 = ORIENTED_EDGE ( 'NONE', *, *, #305, .T. ) ;
#54 = ADVANCED_FACE ( 'NONE', ( #312, #101 ), #251, .T. ) ;
#55 = CARTESIAN_POINT ( 'NONE',  ( 5.849999999999999645, -11.00000000000000355, 1.347111479062088799E-15 ) ) ;
#56 = ORIENTED_EDGE ( 'NONE', *, *, #223, .F. ) ;
#57 = AXIS2_PLACEMENT_3D ( 'NONE', #352, #36, #199 ) ;
#58 = CARTESIAN_POINT ( 'NONE',  ( 9.000000000000000000, 10.50000000000000178, 1.285879139104721028E-15 ) ) ;
#59 = CIRCLE ( 'NONE', #349, 9.000000000000001776 ) ;
#60 = ORIENTED_EDGE ( 'NONE', *, *, #48, .T. ) ;
#61 = LINE ( 'NONE', #358, #146 ) ;
#62 = ORIENTED_EDGE ( 'NONE', *, *, #109, .F. ) ;
#63 = FILL_AREA_STYLE ('',( #161 ) ) ;
#64 = VERTEX_POINT ( 'NONE', #220 ) ;
#65 = DIRECTION ( 'NONE',  ( 2.616043114787961891E-17, 1.000000000000000000, 0.000000000000000000 ) ) ;
#66 = AXIS2_PLACEMENT_3D ( 'NONE', #297, #356, #20 ) ;
#67 = ORIENTED_EDGE ( 'NONE', *, *, #326, .F. ) ;
#68 = LINE ( 'NONE', #95, #380 ) ;
#69 = APPLICATION_CONTEXT ( 'automotive_design' ) ;
#70 = ORIENTED_EDGE ( 'NONE', *, *, #378, .F. ) ;
#71 = PLANE ( 'NONE',  #129 ) ;
#72 = CARTESIAN_POINT ( 'NONE',  ( 5.849999999999999645, 9.000000000000001776, 0.000000000000000000 ) ) ;
#73 =( NAMED_UNIT ( * ) SI_UNIT ( $, .STERADIAN. ) SOLID_ANGLE_UNIT ( ) );
#74 = AXIS2_PLACEMENT_3D ( 'NONE', #332, #229, #26 ) ;
#75 = ADVANCED_FACE ( 'NONE', ( #107 ), #221, .T. ) ;
#76 =( NAMED_UNIT ( * ) SI_UNIT ( $, .STERADIAN. ) SOLID_ANGLE_UNIT ( ) );
#77 = AXIS2_PLACEMENT_3D ( 'NONE', #272, #218, #65 ) ;
#78 = SURFACE_SIDE_STYLE ('',( #381 ) ) ;
#79 = ORIENTED_EDGE ( 'NONE', *, *, #284, .T. ) ;
#80 = CARTESIAN_POINT ( 'NONE',  ( 0.000000000000000000, 0.000000000000000000, 0.000000000000000000 ) ) ;
#81 = ADVANCED_FACE ( 'NONE', ( #192 ), #19, .T. ) ;
#82 = PRODUCT_DEFINITION_SHAPE ( 'NONE', 'NONE',  #193 ) ;
#83 = MANIFOLD_SOLID_BREP ( 'Chanfrein1', #368 ) ;
#84 = DIRECTION ( 'NONE',  ( 3.942553354492742052E-17, 1.000000000000000000, 0.000000000000000000 ) ) ;
#85 = CIRCLE ( 'NONE', #308, 9.000000000000001776 ) ;
#86 = FACE_OUTER_BOUND ( 'NONE', #235, .T. ) ;
#87 = FACE_OUTER_BOUND ( 'NONE', #304, .T. ) ;
#88 = DIRECTION ( 'NONE',  ( 1.000000000000000000, -2.616043114787961891E-17, -0.000000000000000000 ) ) ;
#89 = EDGE_LOOP ( 'NONE', ( #25, #275, #53, #397 ) ) ;
#90 = FACE_OUTER_BOUND ( 'NONE', #89, .T. ) ;
#91 = AXIS2_PLACEMENT_3D ( 'NONE', #182, #127, #398 ) ;
#92 = ORIENTED_EDGE ( 'NONE', *, *, #100, .T. ) ;
#93 = EDGE_CURVE ( 'NONE', #254, #244, #105, .T. ) ;
#94 = ORIENTED_EDGE ( 'NONE', *, *, #294, .F. ) ;
#95 = CARTESIAN_POINT ( 'NONE',  ( 9.000000000000000000, -11.00000000000000178, 1.347111479062088602E-15 ) ) ;
#96 = ORIENTED_EDGE ( 'NONE', *, *, #326, .T. ) ;
#97 = DIRECTION ( 'NONE',  ( 1.000000000000000000, -2.616043114787961891E-17, -0.000000000000000000 ) ) ;
#98 = AXIS2_PLACEMENT_3D ( 'NONE', #117, #303, #236 ) ;
#99 = FACE_OUTER_BOUND ( 'NONE', #148, .T. ) ;
#100 = EDGE_CURVE ( 'NONE', #296, #341, #245, .T. ) ;
#101 = FACE_OUTER_BOUND ( 'NONE', #357, .T. ) ;
#102 = DIRECTION ( 'NONE',  ( 1.000000000000000000, -2.616043114787961891E-17, -0.000000000000000000 ) ) ;
#103 = DIRECTION ( 'NONE',  ( 0.000000000000000000, -1.000000000000000000, 0.000000000000000000 ) ) ;
#104 = EDGE_CURVE ( 'NONE', #212, #198, #189, .T. ) ;
#105 = CIRCLE ( 'NONE', #57, 9.000000000000001776 ) ;
#106 = MECHANICAL_DESIGN_GEOMETRIC_PRESENTATION_REPRESENTATION (  '', ( #201 ), #362 ) ;
#107 = FACE_OUTER_BOUND ( 'NONE', #333, .T. ) ;
#108 = CARTESIAN_POINT ( 'NONE',  ( 5.849999999999999645, 11.00000000000000355, 0.000000000000000000 ) ) ;
#109 = EDGE_CURVE ( 'NONE', #209, #157, #38, .T. ) ;
#110 = VECTOR ( 'NONE', #265, 999.9999999999998863 ) ;
#111 = DIRECTION ( 'NONE',  ( 0.000000000000000000, 1.000000000000000000, 0.000000000000000000 ) ) ;
#112 = CARTESIAN_POINT ( 'NONE',  ( 9.000000000000000000, 10.50000000000000178, 1.316495309083404815E-15 ) ) ;
#113 = ORIENTED_EDGE ( 'NONE', *, *, #93, .F. ) ;
#114 = CARTESIAN_POINT ( 'NONE',  ( 3.149999999999999467, -9.000000000000001776, 1.102182119232617911E-15 ) ) ;
#115 = VERTEX_POINT ( 'NONE', #320 ) ;
#116 = EDGE_CURVE ( 'NONE', #34, #337, #85, .T. ) ;
#117 = CARTESIAN_POINT ( 'NONE',  ( 8.499999999999992895, -2.223636647569766159E-16, 0.000000000000000000 ) ) ;
#118 = VECTOR ( 'NONE', #206, 1000.000000000000000 ) ;
#119 = ORIENTED_EDGE ( 'NONE', *, *, #281, .F. ) ;
#120 = CARTESIAN_POINT ( 'NONE',  ( 9.000000000000000000, -2.354438803309165764E-16, 0.000000000000000000 ) ) ;
#121 = UNCERTAINTY_MEASURE_WITH_UNIT (LENGTH_MEASURE( 1.000000000000000082E-05 ), #33, 'distance_accuracy_value', 'NONE');
#122 = ORIENTED_EDGE ( 'NONE', *, *, #249, .T. ) ;
#123 = EDGE_CURVE ( 'NONE', #341, #3, #165, .T. ) ;
#124 = ORIENTED_EDGE ( 'NONE', *, *, #2, .F. ) ;
#125 = VECTOR ( 'NONE', #243, 999.9999999999998863 ) ;
#126 = PRODUCT ( 'Bouchon', 'Bouchon', '', ( #11 ) ) ;
#127 = DIRECTION ( 'NONE',  ( 1.000000000000000000, -2.616043114787961891E-17, -0.000000000000000000 ) ) ;
#128 = CIRCLE ( 'NONE', #286, 11.00000000000000178 ) ;
#129 = AXIS2_PLACEMENT_3D ( 'NONE', #1, #37, #310 ) ;
#130 = DIRECTION ( 'NONE',  ( 1.000000000000000000, -2.616043114787961891E-17, -0.000000000000000000 ) ) ;
#131 = DIRECTION ( 'NONE',  ( 1.000000000000000000, -2.616043114787961891E-17, -0.000000000000000000 ) ) ;
#132 = DIRECTION ( 'NONE',  ( -1.000000000000000000, 2.616043114787961891E-17, 0.000000000000000000 ) ) ;
#133 = ADVANCED_BREP_SHAPE_REPRESENTATION ( 'Bouchon', ( #83, #167 ), #138 ) ;
#134 = AXIS2_PLACEMENT_3D ( 'NONE', #327, #88, #111 ) ;
#135 = DIRECTION ( 'NONE',  ( 0.000000000000000000, 0.000000000000000000, 1.000000000000000000 ) ) ;
#136 = ORIENTED_EDGE ( 'NONE', *, *, #233, .T. ) ;
#137 = SURFACE_STYLE_USAGE ( .BOTH. , #255 ) ;
#138 =( GEOMETRIC_REPRESENTATION_CONTEXT ( 3 ) GLOBAL_UNCERTAINTY_ASSIGNED_CONTEXT ( ( #121 ) ) GLOBAL_UNIT_ASSIGNED_CONTEXT ( ( #33, #156, #73 ) ) REPRESENTATION_CONTEXT ( 'NONE', 'WORKASPACE' ) );
#139 = STYLED_ITEM ( 'NONE', ( #228 ), #133 ) ;
#140 = DIRECTION ( 'NONE',  ( 0.7071067811865463515, 0.7071067811865487940, 0.000000000000000000 ) ) ;
#141 = EDGE_LOOP ( 'NONE', ( #145, #46, #383, #119 ) ) ;
#142 = ADVANCED_FACE ( 'NONE', ( #256 ), #10, .T. ) ;
#143 = DIRECTION ( 'NONE',  ( 1.000000000000000000, -2.616043114787961891E-17, -0.000000000000000000 ) ) ;
#144 = DIRECTION ( 'NONE',  ( 1.000000000000000000, -2.616043114787961891E-17, -0.000000000000000000 ) ) ;
#145 = ORIENTED_EDGE ( 'NONE', *, *, #360, .F. ) ;
#146 = VECTOR ( 'NONE', #204, 1000.000000000000000 ) ;
#147 = LINE ( 'NONE', #269, #118 ) ;
#148 = EDGE_LOOP ( 'NONE', ( #290, #264 ) ) ;
#149 = CARTESIAN_POINT ( 'NONE',  ( 9.000000000000000000, -11.00000000000000355, 1.347111479062088799E-15 ) ) ;
#150 = ORIENTED_EDGE ( 'NONE', *, *, #181, .F. ) ;
#151 = CARTESIAN_POINT ( 'NONE',  ( -1.438823713133379133E-16, 5.268657637188765470E-33, 0.000000000000000000 ) ) ;
#152 = EDGE_LOOP ( 'NONE', ( #113, #70 ) ) ;
#153 = AXIS2_PLACEMENT_3D ( 'NONE', #45, #315, #288 ) ;
#154 = CARTESIAN_POINT ( 'NONE',  ( 3.149999999999999911, -8.240535811582081653E-17, 0.000000000000000000 ) ) ;
#155 = ORIENTED_EDGE ( 'NONE', *, *, #284, .F. ) ;
#156 =( NAMED_UNIT ( * ) PLANE_ANGLE_UNIT ( ) SI_UNIT ( $, .RADIAN. ) );
#157 = VERTEX_POINT ( 'NONE', #239 ) ;
#158 = DIRECTION ( 'NONE',  ( 1.000000000000000000, -2.616043114787961891E-17, -0.000000000000000000 ) ) ;
#159 = DIRECTION ( 'NONE',  ( 2.956915015869557155E-17, 1.000000000000000000, 0.000000000000000000 ) ) ;
#160 = FILL_AREA_STYLE_COLOUR ( '', #313 ) ;
#161 = FILL_AREA_STYLE_COLOUR ( '', #203 ) ;
#162 =( NAMED_UNIT ( * ) SI_UNIT ( $, .STERADIAN. ) SOLID_ANGLE_UNIT ( ) );
#163 = EDGE_CURVE ( 'NONE', #3, #64, #128, .T. ) ;
#164 = CARTESIAN_POINT ( 'NONE',  ( 9.000000000000000000, -2.354438803309165764E-16, 0.000000000000000000 ) ) ;
#165 = LINE ( 'NONE', #14, #354 ) ;
#166 = EDGE_CURVE ( 'NONE', #209, #18, #301, .T. ) ;
#167 = AXIS2_PLACEMENT_3D ( 'NONE', #80, #135, #384 ) ;
#168 = CARTESIAN_POINT ( 'NONE',  ( 9.000000000000000000, -9.000000000000001776, 1.102182119232617911E-15 ) ) ;
#169 = DIRECTION ( 'NONE',  ( 0.000000000000000000, 1.000000000000000000, 0.000000000000000000 ) ) ;
#170 = ORIENTED_EDGE ( 'NONE', *, *, #378, .T. ) ;
#171 = CARTESIAN_POINT ( 'NONE',  ( 9.000000000000000000, -2.354438803309165764E-16, 0.000000000000000000 ) ) ;
#172 = VERTEX_POINT ( 'NONE', #329 ) ;
#173 = DIRECTION ( 'NONE',  ( -2.956915015869557155E-17, -1.000000000000000000, 0.000000000000000000 ) ) ;
#174 = UNCERTAINTY_MEASURE_WITH_UNIT (LENGTH_MEASURE( 1.000000000000000082E-05 ), #351, 'distance_accuracy_value', 'NONE');
#175 = ORIENTED_EDGE ( 'NONE', *, *, #305, .F. ) ;
#176 = CARTESIAN_POINT ( 'NONE',  ( 0.5000000000000022204, -1.308021557393990498E-17, 0.000000000000000000 ) ) ;
#177 = ORIENTED_EDGE ( 'NONE', *, *, #360, .T. ) ;
#178 = CARTESIAN_POINT ( 'NONE',  ( -4.185668983660738040E-16, -10.49999999999999645, 1.316495309083404420E-15 ) ) ;
#179 = UNCERTAINTY_MEASURE_WITH_UNIT (LENGTH_MEASURE( 1.000000000000000082E-05 ), #280, 'distance_accuracy_value', 'NONE');
#180 = ORIENTED_EDGE ( 'NONE', *, *, #104, .F. ) ;
#181 = EDGE_CURVE ( 'NONE', #64, #3, #338, .T. ) ;
#182 = CARTESIAN_POINT ( 'NONE',  ( 9.000000000000000000, -2.354438803309165764E-16, 0.000000000000000000 ) ) ;
#183 = ORIENTED_EDGE ( 'NONE', *, *, #116, .F. ) ;
#184 = FACE_BOUND ( 'NONE', #152, .T. ) ;
#185 =( NAMED_UNIT ( * ) PLANE_ANGLE_UNIT ( ) SI_UNIT ( $, .RADIAN. ) );
#186 = DIRECTION ( 'NONE',  ( 0.000000000000000000, 1.000000000000000000, 0.000000000000000000 ) ) ;
#187 = DIRECTION ( 'NONE',  ( -1.000000000000000000, 2.616043114787961891E-17, 0.000000000000000000 ) ) ;
#188 = CARTESIAN_POINT ( 'NONE',  ( 9.000000000000000000, -2.354438803309165764E-16, 0.000000000000000000 ) ) ;
#189 = CIRCLE ( 'NONE', #30, 11.00000000000000355 ) ;
#190 = ADVANCED_FACE ( 'NONE', ( #87 ), #24, .T. ) ;
#191 = MECHANICAL_DESIGN_GEOMETRIC_PRESENTATION_REPRESENTATION (  '', ( #139 ), #372 ) ;
#192 = FACE_OUTER_BOUND ( 'NONE', #49, .T. ) ;
#193 = PRODUCT_DEFINITION ( 'UNKNOWN', '', #51, #29 ) ;
#194 = EDGE_CURVE ( 'NONE', #18, #172, #214, .T. ) ;
#195 = AXIS2_PLACEMENT_3D ( 'NONE', #5, #385, #103 ) ;
#196 = VECTOR ( 'NONE', #143, 1000.000000000000000 ) ;
#197 = DIRECTION ( 'NONE',  ( 0.000000000000000000, 1.000000000000000000, 0.000000000000000000 ) ) ;
#198 = VERTEX_POINT ( 'NONE', #108 ) ;
#199 = DIRECTION ( 'NONE',  ( 4.818676322157796389E-17, 1.000000000000000000, 0.000000000000000000 ) ) ;
#200 = DIRECTION ( 'NONE',  ( 0.000000000000000000, 1.000000000000000000, 0.000000000000000000 ) ) ;
#201 = STYLED_ITEM ( 'NONE', ( #292 ), #83 ) ;
#202 = ORIENTED_EDGE ( 'NONE', *, *, #123, .F. ) ;
#203 = COLOUR_RGB ( '',0.7921568627450980005, 0.8196078431372548767, 0.9333333333333333481 ) ;
#204 = DIRECTION ( 'NONE',  ( 1.000000000000000000, -2.616043114787961891E-17, -0.000000000000000000 ) ) ;
#205 = DIRECTION ( 'NONE',  ( 1.000000000000000000, -2.616043114787969903E-17, -0.000000000000000000 ) ) ;
#206 = DIRECTION ( 'NONE',  ( 0.7071067811865463515, -0.7071067811865487940, 8.659560562354948882E-17 ) ) ;
#207 = ORIENTED_EDGE ( 'NONE', *, *, #249, .F. ) ;
#208 = CARTESIAN_POINT ( 'NONE',  ( 9.000000000000000000, -2.354438803309165764E-16, 0.000000000000000000 ) ) ;
#209 = VERTEX_POINT ( 'NONE', #112 ) ;
#210 = CARTESIAN_POINT ( 'NONE',  ( 9.000000000000000000, 11.00000000000000355, 0.000000000000000000 ) ) ;
#211 = ADVANCED_FACE ( 'NONE', ( #15 ), #370, .T. ) ;
#212 = VERTEX_POINT ( 'NONE', #55 ) ;
#213 = ORIENTED_EDGE ( 'NONE', *, *, #289, .F. ) ;
#214 = CIRCLE ( 'NONE', #98, 11.00000000000000355 ) ;
#215 = FACE_OUTER_BOUND ( 'NONE', #141, .T. ) ;
#216 = CIRCLE ( 'NONE', #287, 11.00000000000000355 ) ;
#217 = ORIENTED_EDGE ( 'NONE', *, *, #258, .F. ) ;
#218 = DIRECTION ( 'NONE',  ( 1.000000000000000000, -2.616043114787961891E-17, -0.000000000000000000 ) ) ;
#219 = CARTESIAN_POINT ( 'NONE',  ( 9.000000000000000000, -2.354438803309165764E-16, 0.000000000000000000 ) ) ;
#220 = CARTESIAN_POINT ( 'NONE',  ( 0.5000000000000018874, -11.00000000000000178, 1.347111479062088602E-15 ) ) ;
#221 = CONICAL_SURFACE ( 'NONE', #195, 10.50000000000000178, 0.7853981633974430610 ) ;
#222 = CIRCLE ( 'NONE', #238, 11.00000000000000355 ) ;
#223 = EDGE_CURVE ( 'NONE', #3, #27, #61, .T. ) ;
#224 = PRODUCT_RELATED_PRODUCT_CATEGORY ( 'part', '', ( #126 ) ) ;
#225 = SURFACE_STYLE_USAGE ( .BOTH. , #78 ) ;
#226 = DIRECTION ( 'NONE',  ( 0.000000000000000000, 1.000000000000000000, 0.000000000000000000 ) ) ;
#227 = AXIS2_PLACEMENT_3D ( 'NONE', #4, #276, #306 ) ;
#228 = PRESENTATION_STYLE_ASSIGNMENT (( #225 ) ) ;
#229 = DIRECTION ( 'NONE',  ( 1.000000000000000000, -2.616043114787969903E-17, -0.000000000000000000 ) ) ;
#230 = AXIS2_PLACEMENT_3D ( 'NONE', #386, #311, #159 ) ;
#231 = AXIS2_PLACEMENT_3D ( 'NONE', #151, #295, #234 ) ;
#232 = LINE ( 'NONE', #149, #196 ) ;
#233 = EDGE_CURVE ( 'NONE', #212, #172, #232, .T. ) ;
#234 = DIRECTION ( 'NONE',  ( -2.616043114787961891E-17, -1.000000000000000000, 0.000000000000000000 ) ) ;
#235 = EDGE_LOOP ( 'NONE', ( #270, #177, #365, #56 ) ) ;
#236 = DIRECTION ( 'NONE',  ( 0.000000000000000000, 1.000000000000000000, 0.000000000000000000 ) ) ;
#237 = ORIENTED_EDGE ( 'NONE', *, *, #116, .T. ) ;
#238 = AXIS2_PLACEMENT_3D ( 'NONE', #17, #144, #84 ) ;
#239 = CARTESIAN_POINT ( 'NONE',  ( 9.000000000000000000, -10.50000000000000178, 0.000000000000000000 ) ) ;
#240 = ADVANCED_FACE ( 'NONE', ( #86 ), #260, .T. ) ;
#241 = ORIENTED_EDGE ( 'NONE', *, *, #294, .T. ) ;
#242 = DIRECTION ( 'NONE',  ( 1.000000000000000000, -2.616043114787961891E-17, -0.000000000000000000 ) ) ;
#243 = DIRECTION ( 'NONE',  ( -0.7071067811865512365, -0.7071067811865439090, 0.000000000000000000 ) ) ;
#244 = VERTEX_POINT ( 'NONE', #114 ) ;
#245 = CIRCLE ( 'NONE', #298, 10.49999999999999645 ) ;
#246 = VECTOR ( 'NONE', #361, 1000.000000000000000 ) ;
#247 = CARTESIAN_POINT ( 'NONE',  ( 5.849999999999999645, -9.000000000000001776, 1.102182119232617911E-15 ) ) ;
#248 = DIRECTION ( 'NONE',  ( 0.000000000000000000, 1.000000000000000000, 0.000000000000000000 ) ) ;
#249 = EDGE_CURVE ( 'NONE', #254, #34, #50, .T. ) ;
#250 = LINE ( 'NONE', #210, #31 ) ;
#251 = PLANE ( 'NONE',  #291 ) ;
#252 = ADVANCED_FACE ( 'NONE', ( #90 ), #259, .T. ) ;
#253 = DIRECTION ( 'NONE',  ( 1.000000000000000000, -2.616043114787961891E-17, -0.000000000000000000 ) ) ;
#254 = VERTEX_POINT ( 'NONE', #387 ) ;
#255 = SURFACE_SIDE_STYLE ('',( #350 ) ) ;
#256 = FACE_OUTER_BOUND ( 'NONE', #309, .T. ) ;
#257 = ORIENTED_EDGE ( 'NONE', *, *, #2, .T. ) ;
#258 = EDGE_CURVE ( 'NONE', #341, #296, #13, .T. ) ;
#259 = CYLINDRICAL_SURFACE ( 'NONE', #346, 11.00000000000000355 ) ;
#260 = CYLINDRICAL_SURFACE ( 'NONE', #134, 11.00000000000000178 ) ;
#261 = EDGE_CURVE ( 'NONE', #27, #115, #222, .T. ) ;
#262 = AXIS2_PLACEMENT_3D ( 'NONE', #176, #205, #173 ) ;
#263 = AXIS2_PLACEMENT_3D ( 'NONE', #171, #293, #267 ) ;
#264 = ORIENTED_EDGE ( 'NONE', *, *, #109, .T. ) ;
#265 = DIRECTION ( 'NONE',  ( -0.7071067811865512365, 0.7071067811865439090, 8.659560562354888485E-17 ) ) ;
#266 = PLANE ( 'NONE',  #153 ) ;
#267 = DIRECTION ( 'NONE',  ( 0.000000000000000000, 1.000000000000000000, 0.000000000000000000 ) ) ;
#268 = EDGE_LOOP ( 'NONE', ( #359, #92 ) ) ;
#269 = CARTESIAN_POINT ( 'NONE',  ( 0.5000000000000018874, -11.00000000000000178, 1.347111479062088602E-15 ) ) ;
#270 = ORIENTED_EDGE ( 'NONE', *, *, #163, .T. ) ;
#271 = AXIS2_PLACEMENT_3D ( 'NONE', #188, #158, #186 ) ;
#272 = CARTESIAN_POINT ( 'NONE',  ( 3.149999999999999467, 11.00000000000000355, 0.000000000000000000 ) ) ;
#273 = EDGE_LOOP ( 'NONE', ( #155, #217, #322, #150 ) ) ;
#274 = CYLINDRICAL_SURFACE ( 'NONE', #299, 11.00000000000000178 ) ;
#275 = ORIENTED_EDGE ( 'NONE', *, *, #104, .T. ) ;
#276 = DIRECTION ( 'NONE',  ( 1.000000000000000000, -2.616043114787961891E-17, -0.000000000000000000 ) ) ;
#277 = CARTESIAN_POINT ( 'NONE',  ( 5.849999999999999645, -1.530385222150957475E-16, 0.000000000000000000 ) ) ;
#278 = AXIS2_PLACEMENT_3D ( 'NONE', #219, #131, #197 ) ;
#279 = CARTESIAN_POINT ( 'NONE',  ( 1.308021557393980021E-16, 10.49999999999999645, 0.000000000000000000 ) ) ;
#280 =( LENGTH_UNIT ( ) NAMED_UNIT ( * ) SI_UNIT ( .MILLI., .METRE. ) );
#281 = EDGE_CURVE ( 'NONE', #115, #27, #339, .T. ) ;
#282 = CARTESIAN_POINT ( 'NONE',  ( 5.849999999999999645, -1.530385222150957475E-16, 0.000000000000000000 ) ) ;
#283 = DIRECTION ( 'NONE',  ( 0.000000000000000000, -1.000000000000000000, 0.000000000000000000 ) ) ;
#284 = EDGE_CURVE ( 'NONE', #296, #64, #147, .T. ) ;
#285 = APPLICATION_CONTEXT ( 'automotive_design' ) ;
#286 = AXIS2_PLACEMENT_3D ( 'NONE', #394, #355, #52 ) ;
#287 = AXIS2_PLACEMENT_3D ( 'NONE', #390, #330, #200 ) ;
#288 = DIRECTION ( 'NONE',  ( 2.616043114787961891E-17, 1.000000000000000000, 0.000000000000000000 ) ) ;
#289 = EDGE_CURVE ( 'NONE', #172, #18, #216, .T. ) ;
#290 = ORIENTED_EDGE ( 'NONE', *, *, #316, .T. ) ;
#291 = AXIS2_PLACEMENT_3D ( 'NONE', #72, #187, #374 ) ;
#292 = PRESENTATION_STYLE_ASSIGNMENT (( #137 ) ) ;
#293 = DIRECTION ( 'NONE',  ( 1.000000000000000000, -2.616043114787961891E-17, -0.000000000000000000 ) ) ;
#294 = EDGE_CURVE ( 'NONE', #244, #337, #323, .T. ) ;
#295 = DIRECTION ( 'NONE',  ( -1.000000000000000000, 2.616043114787961891E-17, 0.000000000000000000 ) ) ;
#296 = VERTEX_POINT ( 'NONE', #178 ) ;
#297 = CARTESIAN_POINT ( 'NONE',  ( 3.149999999999999911, -8.240535811582081653E-17, 0.000000000000000000 ) ) ;
#298 = AXIS2_PLACEMENT_3D ( 'NONE', #9, #132, #319 ) ;
#299 = AXIS2_PLACEMENT_3D ( 'NONE', #120, #102, #334 ) ;
#300 = ORIENTED_EDGE ( 'NONE', *, *, #163, .F. ) ;
#301 = LINE ( 'NONE', #58, #110 ) ;
#302 = ORIENTED_EDGE ( 'NONE', *, *, #166, .F. ) ;
#303 = DIRECTION ( 'NONE',  ( -1.000000000000000000, 2.616043114787961275E-17, 0.000000000000000000 ) ) ;
#304 = EDGE_LOOP ( 'NONE', ( #363, #241, #183, #207 ) ) ;
#305 = EDGE_CURVE ( 'NONE', #198, #18, #250, .T. ) ;
#306 = DIRECTION ( 'NONE',  ( 0.000000000000000000, 1.000000000000000000, 0.000000000000000000 ) ) ;
#307 = LINE ( 'NONE', #32, #125 ) ;
#308 = AXIS2_PLACEMENT_3D ( 'NONE', #47, #376, #226 ) ;
#309 = EDGE_LOOP ( 'NONE', ( #328, #79, #300, #202 ) ) ;
#310 = DIRECTION ( 'NONE',  ( -2.616043114787961891E-17, -1.000000000000000000, 0.000000000000000000 ) ) ;
#311 = DIRECTION ( 'NONE',  ( 1.000000000000000000, -2.616043114787969903E-17, -0.000000000000000000 ) ) ;
#312 = FACE_BOUND ( 'NONE', #331, .T. ) ;
#313 = COLOUR_RGB ( '',0.7921568627450980005, 0.8196078431372548767, 0.9333333333333333481 ) ;
#314 = DIRECTION ( 'NONE',  ( 1.000000000000000000, -2.616043114787961891E-17, -0.000000000000000000 ) ) ;
#315 = DIRECTION ( 'NONE',  ( 1.000000000000000000, -2.616043114787961891E-17, -0.000000000000000000 ) ) ;
#316 = EDGE_CURVE ( 'NONE', #157, #209, #21, .T. ) ;
#317 = SHAPE_DEFINITION_REPRESENTATION ( #82, #133 ) ;
#318 = AXIS2_PLACEMENT_3D ( 'NONE', #379, #130, #248 ) ;
#319 = DIRECTION ( 'NONE',  ( -2.616043114787961891E-17, -1.000000000000000000, 0.000000000000000000 ) ) ;
#320 = CARTESIAN_POINT ( 'NONE',  ( 3.149999999999999467, -11.00000000000000355, 1.347111479062088996E-15 ) ) ;
#321 = ADVANCED_FACE ( 'NONE', ( #215 ), #274, .T. ) ;
#322 = ORIENTED_EDGE ( 'NONE', *, *, #123, .T. ) ;
#323 = LINE ( 'NONE', #168, #44 ) ;
#324 = PRESENTATION_LAYER_ASSIGNMENT (  '', '', ( #139 ) ) ;
#325 = ORIENTED_EDGE ( 'NONE', *, *, #316, .F. ) ;
#326 = EDGE_CURVE ( 'NONE', #337, #34, #6, .T. ) ;
#327 = CARTESIAN_POINT ( 'NONE',  ( 9.000000000000000000, -2.354438803309165764E-16, 0.000000000000000000 ) ) ;
#328 = ORIENTED_EDGE ( 'NONE', *, *, #100, .F. ) ;
#329 = CARTESIAN_POINT ( 'NONE',  ( 8.499999999999992895, -11.00000000000000355, 1.347111479062088799E-15 ) ) ;
#330 = DIRECTION ( 'NONE',  ( -1.000000000000000000, 2.616043114787961275E-17, 0.000000000000000000 ) ) ;
#331 = EDGE_LOOP ( 'NONE', ( #237, #96 ) ) ;
#332 = CARTESIAN_POINT ( 'NONE',  ( 0.5000000000000022204, -1.308021557393990498E-17, 0.000000000000000000 ) ) ;
#333 = EDGE_LOOP ( 'NONE', ( #62, #389, #213, #124 ) ) ;
#334 = DIRECTION ( 'NONE',  ( 0.000000000000000000, 1.000000000000000000, 0.000000000000000000 ) ) ;
#335 = ORIENTED_EDGE ( 'NONE', *, *, #194, .F. ) ;
#336 = DIRECTION ( 'NONE',  ( 0.000000000000000000, 1.000000000000000000, 0.000000000000000000 ) ) ;
#337 = VERTEX_POINT ( 'NONE', #247 ) ;
#338 = CIRCLE ( 'NONE', #262, 11.00000000000000178 ) ;
#339 = CIRCLE ( 'NONE', #66, 11.00000000000000355 ) ;
#340 = FACE_OUTER_BOUND ( 'NONE', #16, .T. ) ;
#341 = VERTEX_POINT ( 'NONE', #279 ) ;
#342 = CYLINDRICAL_SURFACE ( 'NONE', #91, 11.00000000000000355 ) ;
#343 = FILL_AREA_STYLE ('',( #160 ) ) ;
#344 = ADVANCED_FACE ( 'NONE', ( #40, #184 ), #28, .T. ) ;
#345 = CARTESIAN_POINT ( 'NONE',  ( 3.150000000000000355, 11.00000000000000355, 0.000000000000000000 ) ) ;
#346 = AXIS2_PLACEMENT_3D ( 'NONE', #208, #388, #169 ) ;
#347 = ADVANCED_FACE ( 'NONE', ( #340 ), #366, .T. ) ;
#348 = AXIS2_PLACEMENT_3D ( 'NONE', #164, #39, #283 ) ;
#349 = AXIS2_PLACEMENT_3D ( 'NONE', #154, #364, #373 ) ;
#350 = SURFACE_STYLE_FILL_AREA ( #343 ) ;
#351 =( LENGTH_UNIT ( ) NAMED_UNIT ( * ) SI_UNIT ( .MILLI., .METRE. ) );
#352 = CARTESIAN_POINT ( 'NONE',  ( 3.149999999999999911, -8.240535811582081653E-17, 0.000000000000000000 ) ) ;
#353 = ORIENTED_EDGE ( 'NONE', *, *, #281, .T. ) ;
#354 = VECTOR ( 'NONE', #140, 1000.000000000000000 ) ;
#355 = DIRECTION ( 'NONE',  ( 1.000000000000000000, -2.616043114787969903E-17, -0.000000000000000000 ) ) ;
#356 = DIRECTION ( 'NONE',  ( 1.000000000000000000, -2.616043114787961891E-17, -0.000000000000000000 ) ) ;
#357 = EDGE_LOOP ( 'NONE', ( #23, #180 ) ) ;
#358 = CARTESIAN_POINT ( 'NONE',  ( 9.000000000000000000, 11.00000000000000178, 0.000000000000000000 ) ) ;
#359 = ORIENTED_EDGE ( 'NONE', *, *, #258, .T. ) ;
#360 = EDGE_CURVE ( 'NONE', #64, #115, #68, .T. ) ;
#361 = DIRECTION ( 'NONE',  ( 1.000000000000000000, -2.616043114787961891E-17, -0.000000000000000000 ) ) ;
#362 =( GEOMETRIC_REPRESENTATION_CONTEXT ( 3 ) GLOBAL_UNCERTAINTY_ASSIGNED_CONTEXT ( ( #179 ) ) GLOBAL_UNIT_ASSIGNED_CONTEXT ( ( #280, #185, #162 ) ) REPRESENTATION_CONTEXT ( 'NONE', 'WORKASPACE' ) );
#363 = ORIENTED_EDGE ( 'NONE', *, *, #93, .T. ) ;
#364 = DIRECTION ( 'NONE',  ( 1.000000000000000000, -2.616043114787961891E-17, -0.000000000000000000 ) ) ;
#365 = ORIENTED_EDGE ( 'NONE', *, *, #261, .F. ) ;
#366 = CYLINDRICAL_SURFACE ( 'NONE', #227, 9.000000000000001776 ) ;
#367 = ORIENTED_EDGE ( 'NONE', *, *, #261, .T. ) ;
#368 = CLOSED_SHELL ( 'NONE', ( #75, #142, #399, #190, #240, #382, #321, #344, #347, #54, #252, #22, #211, #81 ) ) ;
#369 = FACE_OUTER_BOUND ( 'NONE', #268, .T. ) ;
#370 = CONICAL_SURFACE ( 'NONE', #74, 11.00000000000000178, 0.7853981633974500554 ) ;
#371 = CARTESIAN_POINT ( 'NONE',  ( 8.499999999999992895, 11.00000000000000355, 0.000000000000000000 ) ) ;
#372 =( GEOMETRIC_REPRESENTATION_CONTEXT ( 3 ) GLOBAL_UNCERTAINTY_ASSIGNED_CONTEXT ( ( #174 ) ) GLOBAL_UNIT_ASSIGNED_CONTEXT ( ( #351, #377, #76 ) ) REPRESENTATION_CONTEXT ( 'NONE', 'WORKASPACE' ) );
#373 = DIRECTION ( 'NONE',  ( 4.818676322157796389E-17, 1.000000000000000000, 0.000000000000000000 ) ) ;
#374 = DIRECTION ( 'NONE',  ( -2.616043114787961891E-17, -1.000000000000000000, 0.000000000000000000 ) ) ;
#375 = APPLICATION_PROTOCOL_DEFINITION ( 'draft international standard', 'automotive_design', 1998, #285 ) ;
#376 = DIRECTION ( 'NONE',  ( 1.000000000000000000, -2.616043114787961891E-17, -0.000000000000000000 ) ) ;
#377 =( NAMED_UNIT ( * ) PLANE_ANGLE_UNIT ( ) SI_UNIT ( $, .RADIAN. ) );
#378 = EDGE_CURVE ( 'NONE', #244, #254, #59, .T. ) ;
#379 = CARTESIAN_POINT ( 'NONE',  ( 5.849999999999999645, -1.530385222150957475E-16, 0.000000000000000000 ) ) ;
#380 = VECTOR ( 'NONE', #8, 1000.000000000000000 ) ;
#381 = SURFACE_STYLE_FILL_AREA ( #63 ) ;
#382 = ADVANCED_FACE ( 'NONE', ( #369 ), #71, .T. ) ;
#383 = ORIENTED_EDGE ( 'NONE', *, *, #223, .T. ) ;
#384 = DIRECTION ( 'NONE',  ( 1.000000000000000000, 0.000000000000000000, 0.000000000000000000 ) ) ;
#385 = DIRECTION ( 'NONE',  ( -1.000000000000000000, 2.616043114787961275E-17, 0.000000000000000000 ) ) ;
#386 = CARTESIAN_POINT ( 'NONE',  ( 0.5000000000000022204, -1.308021557393990498E-17, 0.000000000000000000 ) ) ;
#387 = CARTESIAN_POINT ( 'NONE',  ( 3.150000000000000355, 9.000000000000001776, 0.000000000000000000 ) ) ;
#388 = DIRECTION ( 'NONE',  ( 1.000000000000000000, -2.616043114787961891E-17, -0.000000000000000000 ) ) ;
#389 = ORIENTED_EDGE ( 'NONE', *, *, #166, .T. ) ;
#390 = CARTESIAN_POINT ( 'NONE',  ( 8.499999999999992895, -2.223636647569766159E-16, 0.000000000000000000 ) ) ;
#391 = ORIENTED_EDGE ( 'NONE', *, *, #289, .T. ) ;
#392 = CARTESIAN_POINT ( 'NONE',  ( 9.000000000000000000, 9.000000000000001776, 0.000000000000000000 ) ) ;
#393 = EDGE_LOOP ( 'NONE', ( #60, #136, #391, #175 ) ) ;
#394 = CARTESIAN_POINT ( 'NONE',  ( 0.5000000000000022204, -1.308021557393990498E-17, 0.000000000000000000 ) ) ;
#395 = CIRCLE ( 'NONE', #318, 11.00000000000000355 ) ;
#396 = AXIS2_PLACEMENT_3D ( 'NONE', #282, #242, #336 ) ;
#397 = ORIENTED_EDGE ( 'NONE', *, *, #194, .T. ) ;
#398 = DIRECTION ( 'NONE',  ( 0.000000000000000000, 1.000000000000000000, 0.000000000000000000 ) ) ;
#399 = ADVANCED_FACE ( 'NONE', ( #35 ), #342, .T. ) ;
#400 = CARTESIAN_POINT ( 'NONE',  ( 0.5000000000000025535, 11.00000000000000178, 0.000000000000000000 ) ) ;
ENDSEC;
END-ISO-10303-21;
