ISO-10303-21;
HEADER;
FILE_DESCRIPTION (( 'STEP AP214' ),
    '1' );
FILE_NAME ('Bague 2 rlt.STEP',
    '2023-05-22T06:19:10',
    ( '' ),
    ( '' ),
    'SwSTEP 2.0',
    'SolidWorks 2020',
    '' );
FILE_SCHEMA (( 'AUTOMOTIVE_DESIGN' ));
ENDSEC;

DATA;
#1 = ORIENTED_EDGE ( 'NONE', *, *, #84, .T. ) ;
#2 = DIRECTION ( 'NONE',  ( 1.000000000000000000, 0.000000000000000000, 0.000000000000000000 ) ) ;
#3 = CLOSED_SHELL ( 'NONE', ( #50, #201, #20, #71, #209, #15 ) ) ;
#4 = FILL_AREA_STYLE ('',( #109 ) ) ;
#5 = DIRECTION ( 'NONE',  ( 0.000000000000000000, 0.000000000000000000, 1.000000000000000000 ) ) ;
#6 = MECHANICAL_DESIGN_GEOMETRIC_PRESENTATION_REPRESENTATION (  '', ( #103 ), #51 ) ;
#7 = APPLICATION_PROTOCOL_DEFINITION ( 'draft international standard', 'automotive_design', 1998, #177 ) ;
#8 = VERTEX_POINT ( 'NONE', #173 ) ;
#9 = DIRECTION ( 'NONE',  ( 1.000000000000000000, 0.000000000000000000, -0.000000000000000000 ) ) ;
#10 = DIRECTION ( 'NONE',  ( -0.000000000000000000, -0.000000000000000000, -1.000000000000000000 ) ) ;
#11 = CARTESIAN_POINT ( 'NONE',  ( 0.000000000000000000, 0.000000000000000000, 13.00000000000000000 ) ) ;
#12 = FACE_OUTER_BOUND ( 'NONE', #107, .T. ) ;
#13 = AXIS2_PLACEMENT_3D ( 'NONE', #185, #97, #171 ) ;
#14 =( LENGTH_UNIT ( ) NAMED_UNIT ( * ) SI_UNIT ( .MILLI., .METRE. ) );
#15 = ADVANCED_FACE ( 'NONE', ( #155 ), #21, .F. ) ;
#16 = CARTESIAN_POINT ( 'NONE',  ( 0.000000000000000000, 0.000000000000000000, 13.00000000000000000 ) ) ;
#17 = PRODUCT_DEFINITION_SHAPE ( 'NONE', 'NONE',  #68 ) ;
#18 = LINE ( 'NONE', #132, #119 ) ;
#19 = CARTESIAN_POINT ( 'NONE',  ( -15.00000000000000000, 0.000000000000000000, 13.00000000000000000 ) ) ;
#20 = ADVANCED_FACE ( 'NONE', ( #139, #188 ), #102, .T. ) ;
#21 = CYLINDRICAL_SURFACE ( 'NONE', #99, 11.24999999999999822 ) ;
#22 = VERTEX_POINT ( 'NONE', #140 ) ;
#23 = CIRCLE ( 'NONE', #111, 11.24999999999999822 ) ;
#24 = CARTESIAN_POINT ( 'NONE',  ( 11.24999999999999822, 1.377727649040771797E-15, 13.00000000000000000 ) ) ;
#25 = AXIS2_PLACEMENT_3D ( 'NONE', #202, #27, #93 ) ;
#26 = VECTOR ( 'NONE', #10, 1000.000000000000000 ) ;
#27 = DIRECTION ( 'NONE',  ( 0.000000000000000000, 0.000000000000000000, 1.000000000000000000 ) ) ;
#28 = PRODUCT_DEFINITION_CONTEXT ( 'detailed design', #177, 'design' ) ;
#29 = FACE_OUTER_BOUND ( 'NONE', #207, .T. ) ;
#30 = VERTEX_POINT ( 'NONE', #24 ) ;
#31 = CARTESIAN_POINT ( 'NONE',  ( 11.24999999999999822, 1.377727649040771797E-15, 13.00000000000000000 ) ) ;
#32 = SURFACE_STYLE_FILL_AREA ( #4 ) ;
#33 = DIRECTION ( 'NONE',  ( 0.000000000000000000, 0.000000000000000000, 1.000000000000000000 ) ) ;
#34 = PLANE ( 'NONE',  #153 ) ;
#35 = DIRECTION ( 'NONE',  ( 1.000000000000000000, 0.000000000000000000, 0.000000000000000000 ) ) ;
#36 = EDGE_CURVE ( 'NONE', #8, #121, #156, .T. ) ;
#37 = VERTEX_POINT ( 'NONE', #70 ) ;
#38 = EDGE_LOOP ( 'NONE', ( #161, #56 ) ) ;
#39 = CARTESIAN_POINT ( 'NONE',  ( 0.000000000000000000, 0.000000000000000000, 13.00000000000000000 ) ) ;
#40 = SURFACE_STYLE_USAGE ( .BOTH. , #73 ) ;
#41 = UNCERTAINTY_MEASURE_WITH_UNIT (LENGTH_MEASURE( 1.000000000000000082E-05 ), #14, 'distance_accuracy_value', 'NONE');
#42 = EDGE_CURVE ( 'NONE', #52, #30, #80, .T. ) ;
#43 = ORIENTED_EDGE ( 'NONE', *, *, #213, .F. ) ;
#44 = PRESENTATION_STYLE_ASSIGNMENT (( #127 ) ) ;
#45 = CARTESIAN_POINT ( 'NONE',  ( 0.000000000000000000, 0.000000000000000000, 0.000000000000000000 ) ) ;
#46 = CIRCLE ( 'NONE', #67, 11.24999999999999822 ) ;
#47 = CARTESIAN_POINT ( 'NONE',  ( 0.000000000000000000, 0.000000000000000000, 0.000000000000000000 ) ) ;
#48 = ORIENTED_EDGE ( 'NONE', *, *, #175, .F. ) ;
#49 = DIRECTION ( 'NONE',  ( -0.000000000000000000, -0.000000000000000000, -1.000000000000000000 ) ) ;
#50 = ADVANCED_FACE ( 'NONE', ( #136 ), #196, .F. ) ;
#51 =( GEOMETRIC_REPRESENTATION_CONTEXT ( 3 ) GLOBAL_UNCERTAINTY_ASSIGNED_CONTEXT ( ( #41 ) ) GLOBAL_UNIT_ASSIGNED_CONTEXT ( ( #14, #135, #168 ) ) REPRESENTATION_CONTEXT ( 'NONE', 'WORKASPACE' ) );
#52 = VERTEX_POINT ( 'NONE', #88 ) ;
#53 = MANIFOLD_SOLID_BREP ( 'Boss.-Extru.1', #3 ) ;
#54 = ORIENTED_EDGE ( 'NONE', *, *, #175, .T. ) ;
#55 = ADVANCED_BREP_SHAPE_REPRESENTATION ( 'Bague 2 rlt', ( #53, #13 ), #130 ) ;
#56 = ORIENTED_EDGE ( 'NONE', *, *, #58, .T. ) ;
#57 = DIRECTION ( 'NONE',  ( -1.000000000000000000, 0.000000000000000000, 0.000000000000000000 ) ) ;
#58 = EDGE_CURVE ( 'NONE', #144, #120, #23, .T. ) ;
#59 = CIRCLE ( 'NONE', #85, 15.00000000000000000 ) ;
#60 = UNCERTAINTY_MEASURE_WITH_UNIT (LENGTH_MEASURE( 1.000000000000000082E-05 ), #148, 'distance_accuracy_value', 'NONE');
#61 = DIRECTION ( 'NONE',  ( -1.000000000000000000, 0.000000000000000000, 0.000000000000000000 ) ) ;
#62 = ORIENTED_EDGE ( 'NONE', *, *, #36, .F. ) ;
#63 = SURFACE_SIDE_STYLE ('',( #32 ) ) ;
#64 = PRODUCT ( 'Bague 2 rlt', 'Bague 2 rlt', '', ( #152 ) ) ;
#65 = DIRECTION ( 'NONE',  ( 1.000000000000000000, 0.000000000000000000, 0.000000000000000000 ) ) ;
#66 = CARTESIAN_POINT ( 'NONE',  ( -15.00000000000000000, 0.000000000000000000, 0.000000000000000000 ) ) ;
#67 = AXIS2_PLACEMENT_3D ( 'NONE', #128, #5, #108 ) ;
#68 = PRODUCT_DEFINITION ( 'UNKNOWN', '', #138, #28 ) ;
#69 = ORIENTED_EDGE ( 'NONE', *, *, #92, .T. ) ;
#70 = CARTESIAN_POINT ( 'NONE',  ( 15.00000000000000000, 1.836970198721029194E-15, 13.00000000000000000 ) ) ;
#71 = ADVANCED_FACE ( 'NONE', ( #129, #203 ), #34, .F. ) ;
#72 =( GEOMETRIC_REPRESENTATION_CONTEXT ( 3 ) GLOBAL_UNCERTAINTY_ASSIGNED_CONTEXT ( ( #142 ) ) GLOBAL_UNIT_ASSIGNED_CONTEXT ( ( #126, #106, #194 ) ) REPRESENTATION_CONTEXT ( 'NONE', 'WORKASPACE' ) );
#73 = SURFACE_SIDE_STYLE ('',( #90 ) ) ;
#74 = EDGE_CURVE ( 'NONE', #37, #8, #134, .T. ) ;
#75 =( NAMED_UNIT ( * ) PLANE_ANGLE_UNIT ( ) SI_UNIT ( $, .RADIAN. ) );
#76 = DIRECTION ( 'NONE',  ( -0.000000000000000000, -0.000000000000000000, -1.000000000000000000 ) ) ;
#77 = AXIS2_PLACEMENT_3D ( 'NONE', #197, #164, #150 ) ;
#78 = CYLINDRICAL_SURFACE ( 'NONE', #77, 15.00000000000000000 ) ;
#79 = DIRECTION ( 'NONE',  ( -0.000000000000000000, -0.000000000000000000, -1.000000000000000000 ) ) ;
#80 = CIRCLE ( 'NONE', #170, 11.24999999999999822 ) ;
#81 = DIRECTION ( 'NONE',  ( 0.000000000000000000, 0.000000000000000000, 1.000000000000000000 ) ) ;
#82 = EDGE_LOOP ( 'NONE', ( #187, #118, #214, #48 ) ) ;
#83 = DIRECTION ( 'NONE',  ( -0.000000000000000000, -0.000000000000000000, -1.000000000000000000 ) ) ;
#84 = EDGE_CURVE ( 'NONE', #8, #37, #95, .T. ) ;
#85 = AXIS2_PLACEMENT_3D ( 'NONE', #195, #115, #2 ) ;
#86 = CARTESIAN_POINT ( 'NONE',  ( 0.000000000000000000, 0.000000000000000000, 13.00000000000000000 ) ) ;
#87 = EDGE_LOOP ( 'NONE', ( #169, #191 ) ) ;
#88 = CARTESIAN_POINT ( 'NONE',  ( -11.24999999999999822, 0.000000000000000000, 13.00000000000000000 ) ) ;
#89 = VECTOR ( 'NONE', #79, 1000.000000000000000 ) ;
#90 = SURFACE_STYLE_FILL_AREA ( #158 ) ;
#91 = APPLICATION_PROTOCOL_DEFINITION ( 'draft international standard', 'automotive_design', 1998, #151 ) ;
#92 = EDGE_CURVE ( 'NONE', #30, #52, #46, .T. ) ;
#93 = DIRECTION ( 'NONE',  ( 1.000000000000000000, 0.000000000000000000, 0.000000000000000000 ) ) ;
#94 = CARTESIAN_POINT ( 'NONE',  ( -11.24999999999999822, 0.000000000000000000, 0.000000000000000000 ) ) ;
#95 = CIRCLE ( 'NONE', #193, 15.00000000000000000 ) ;
#96 = ORIENTED_EDGE ( 'NONE', *, *, #74, .F. ) ;
#97 = DIRECTION ( 'NONE',  ( 0.000000000000000000, 0.000000000000000000, 1.000000000000000000 ) ) ;
#98 = AXIS2_PLACEMENT_3D ( 'NONE', #16, #113, #183 ) ;
#99 = AXIS2_PLACEMENT_3D ( 'NONE', #86, #83, #57 ) ;
#100 = ORIENTED_EDGE ( 'NONE', *, *, #211, .F. ) ;
#101 = ORIENTED_EDGE ( 'NONE', *, *, #36, .T. ) ;
#102 = PLANE ( 'NONE',  #199 ) ;
#103 = STYLED_ITEM ( 'NONE', ( #44 ), #55 ) ;
#104 = EDGE_LOOP ( 'NONE', ( #123, #69, #54, #131 ) ) ;
#105 = PRODUCT_RELATED_PRODUCT_CATEGORY ( 'part', '', ( #64 ) ) ;
#106 =( NAMED_UNIT ( * ) PLANE_ANGLE_UNIT ( ) SI_UNIT ( $, .RADIAN. ) );
#107 = EDGE_LOOP ( 'NONE', ( #200, #114, #101, #167 ) ) ;
#108 = DIRECTION ( 'NONE',  ( 1.000000000000000000, 0.000000000000000000, 0.000000000000000000 ) ) ;
#109 = FILL_AREA_STYLE_COLOUR ( '', #157 ) ;
#110 = DIRECTION ( 'NONE',  ( 0.000000000000000000, 0.000000000000000000, 1.000000000000000000 ) ) ;
#111 = AXIS2_PLACEMENT_3D ( 'NONE', #163, #33, #65 ) ;
#112 = CARTESIAN_POINT ( 'NONE',  ( -11.24999999999999822, 0.000000000000000000, 13.00000000000000000 ) ) ;
#113 = DIRECTION ( 'NONE',  ( 0.000000000000000000, 0.000000000000000000, 1.000000000000000000 ) ) ;
#114 = ORIENTED_EDGE ( 'NONE', *, *, #84, .F. ) ;
#115 = DIRECTION ( 'NONE',  ( 0.000000000000000000, 0.000000000000000000, 1.000000000000000000 ) ) ;
#116 = STYLED_ITEM ( 'NONE', ( #159 ), #53 ) ;
#117 = DIRECTION ( 'NONE',  ( 0.000000000000000000, 0.000000000000000000, 1.000000000000000000 ) ) ;
#118 = ORIENTED_EDGE ( 'NONE', *, *, #178, .T. ) ;
#119 = VECTOR ( 'NONE', #76, 1000.000000000000000 ) ;
#120 = VERTEX_POINT ( 'NONE', #94 ) ;
#121 = VERTEX_POINT ( 'NONE', #66 ) ;
#122 = CIRCLE ( 'NONE', #25, 11.24999999999999822 ) ;
#123 = ORIENTED_EDGE ( 'NONE', *, *, #178, .F. ) ;
#124 = DIRECTION ( 'NONE',  ( -0.000000000000000000, -0.000000000000000000, -1.000000000000000000 ) ) ;
#125 = DIRECTION ( 'NONE',  ( 1.000000000000000000, 0.000000000000000000, 0.000000000000000000 ) ) ;
#126 =( LENGTH_UNIT ( ) NAMED_UNIT ( * ) SI_UNIT ( .MILLI., .METRE. ) );
#127 = SURFACE_STYLE_USAGE ( .BOTH. , #63 ) ;
#128 = CARTESIAN_POINT ( 'NONE',  ( 0.000000000000000000, 0.000000000000000000, 13.00000000000000000 ) ) ;
#129 = FACE_OUTER_BOUND ( 'NONE', #186, .T. ) ;
#130 =( GEOMETRIC_REPRESENTATION_CONTEXT ( 3 ) GLOBAL_UNCERTAINTY_ASSIGNED_CONTEXT ( ( #60 ) ) GLOBAL_UNIT_ASSIGNED_CONTEXT ( ( #148, #75, #133 ) ) REPRESENTATION_CONTEXT ( 'NONE', 'WORKASPACE' ) );
#131 = ORIENTED_EDGE ( 'NONE', *, *, #58, .F. ) ;
#132 = CARTESIAN_POINT ( 'NONE',  ( 15.00000000000000000, 1.836970198721029194E-15, 13.00000000000000000 ) ) ;
#133 =( NAMED_UNIT ( * ) SI_UNIT ( $, .STERADIAN. ) SOLID_ANGLE_UNIT ( ) );
#134 = CIRCLE ( 'NONE', #98, 15.00000000000000000 ) ;
#135 =( NAMED_UNIT ( * ) PLANE_ANGLE_UNIT ( ) SI_UNIT ( $, .RADIAN. ) );
#136 = FACE_OUTER_BOUND ( 'NONE', #82, .T. ) ;
#137 = ORIENTED_EDGE ( 'NONE', *, *, #149, .T. ) ;
#138 = PRODUCT_DEFINITION_FORMATION_WITH_SPECIFIED_SOURCE ( 'ANY', '', #64, .NOT_KNOWN. ) ;
#139 = FACE_OUTER_BOUND ( 'NONE', #189, .T. ) ;
#140 = CARTESIAN_POINT ( 'NONE',  ( 15.00000000000000000, 1.836970198721029194E-15, 0.000000000000000000 ) ) ;
#141 = CARTESIAN_POINT ( 'NONE',  ( 0.000000000000000000, 0.000000000000000000, 13.00000000000000000 ) ) ;
#142 = UNCERTAINTY_MEASURE_WITH_UNIT (LENGTH_MEASURE( 1.000000000000000082E-05 ), #126, 'distance_accuracy_value', 'NONE');
#143 = COLOUR_RGB ( '',0.7921568627450980005, 0.8196078431372548767, 0.9333333333333333481 ) ;
#144 = VERTEX_POINT ( 'NONE', #198 ) ;
#145 = PRESENTATION_LAYER_ASSIGNMENT (  '', '', ( #116 ) ) ;
#146 = DIRECTION ( 'NONE',  ( -0.000000000000000000, -0.000000000000000000, -1.000000000000000000 ) ) ;
#147 = LINE ( 'NONE', #112, #184 ) ;
#148 =( LENGTH_UNIT ( ) NAMED_UNIT ( * ) SI_UNIT ( .MILLI., .METRE. ) );
#149 = EDGE_CURVE ( 'NONE', #37, #22, #18, .T. ) ;
#150 = DIRECTION ( 'NONE',  ( -1.000000000000000000, 0.000000000000000000, 0.000000000000000000 ) ) ;
#151 = APPLICATION_CONTEXT ( 'automotive_design' ) ;
#152 = PRODUCT_CONTEXT ( 'NONE', #151, 'mechanical' ) ;
#153 = AXIS2_PLACEMENT_3D ( 'NONE', #45, #110, #181 ) ;
#154 = DIRECTION ( 'NONE',  ( 1.000000000000000000, 0.000000000000000000, 0.000000000000000000 ) ) ;
#155 = FACE_OUTER_BOUND ( 'NONE', #104, .T. ) ;
#156 = LINE ( 'NONE', #19, #26 ) ;
#157 = COLOUR_RGB ( '',0.7921568627450980005, 0.8196078431372548767, 0.9333333333333333481 ) ;
#158 = FILL_AREA_STYLE ('',( #160 ) ) ;
#159 = PRESENTATION_STYLE_ASSIGNMENT (( #40 ) ) ;
#160 = FILL_AREA_STYLE_COLOUR ( '', #143 ) ;
#161 = ORIENTED_EDGE ( 'NONE', *, *, #192, .T. ) ;
#162 = DIRECTION ( 'NONE',  ( 0.000000000000000000, 0.000000000000000000, 1.000000000000000000 ) ) ;
#163 = CARTESIAN_POINT ( 'NONE',  ( 0.000000000000000000, 0.000000000000000000, 0.000000000000000000 ) ) ;
#164 = DIRECTION ( 'NONE',  ( -0.000000000000000000, -0.000000000000000000, -1.000000000000000000 ) ) ;
#165 = CYLINDRICAL_SURFACE ( 'NONE', #180, 15.00000000000000000 ) ;
#166 = CARTESIAN_POINT ( 'NONE',  ( 0.000000000000000000, 0.000000000000000000, 13.00000000000000000 ) ) ;
#167 = ORIENTED_EDGE ( 'NONE', *, *, #213, .T. ) ;
#168 =( NAMED_UNIT ( * ) SI_UNIT ( $, .STERADIAN. ) SOLID_ANGLE_UNIT ( ) );
#169 = ORIENTED_EDGE ( 'NONE', *, *, #42, .F. ) ;
#170 = AXIS2_PLACEMENT_3D ( 'NONE', #141, #81, #154 ) ;
#171 = DIRECTION ( 'NONE',  ( 1.000000000000000000, 0.000000000000000000, 0.000000000000000000 ) ) ;
#172 = ORIENTED_EDGE ( 'NONE', *, *, #74, .T. ) ;
#173 = CARTESIAN_POINT ( 'NONE',  ( -15.00000000000000000, 0.000000000000000000, 13.00000000000000000 ) ) ;
#174 = DIRECTION ( 'NONE',  ( 0.000000000000000000, 0.000000000000000000, 1.000000000000000000 ) ) ;
#175 = EDGE_CURVE ( 'NONE', #52, #120, #147, .T. ) ;
#176 = MECHANICAL_DESIGN_GEOMETRIC_PRESENTATION_REPRESENTATION (  '', ( #116 ), #72 ) ;
#177 = APPLICATION_CONTEXT ( 'automotive_design' ) ;
#178 = EDGE_CURVE ( 'NONE', #30, #144, #182, .T. ) ;
#179 = DIRECTION ( 'NONE',  ( -1.000000000000000000, 0.000000000000000000, 0.000000000000000000 ) ) ;
#180 = AXIS2_PLACEMENT_3D ( 'NONE', #166, #49, #179 ) ;
#181 = DIRECTION ( 'NONE',  ( 1.000000000000000000, 0.000000000000000000, -0.000000000000000000 ) ) ;
#182 = LINE ( 'NONE', #31, #89 ) ;
#183 = DIRECTION ( 'NONE',  ( 1.000000000000000000, 0.000000000000000000, 0.000000000000000000 ) ) ;
#184 = VECTOR ( 'NONE', #146, 1000.000000000000000 ) ;
#185 = CARTESIAN_POINT ( 'NONE',  ( 0.000000000000000000, 0.000000000000000000, 0.000000000000000000 ) ) ;
#186 = EDGE_LOOP ( 'NONE', ( #43, #100 ) ) ;
#187 = ORIENTED_EDGE ( 'NONE', *, *, #42, .T. ) ;
#188 = FACE_BOUND ( 'NONE', #87, .T. ) ;
#189 = EDGE_LOOP ( 'NONE', ( #1, #172 ) ) ;
#190 = CIRCLE ( 'NONE', #208, 15.00000000000000000 ) ;
#191 = ORIENTED_EDGE ( 'NONE', *, *, #92, .F. ) ;
#192 = EDGE_CURVE ( 'NONE', #120, #144, #122, .T. ) ;
#193 = AXIS2_PLACEMENT_3D ( 'NONE', #206, #117, #35 ) ;
#194 =( NAMED_UNIT ( * ) SI_UNIT ( $, .STERADIAN. ) SOLID_ANGLE_UNIT ( ) );
#195 = CARTESIAN_POINT ( 'NONE',  ( 0.000000000000000000, 0.000000000000000000, 0.000000000000000000 ) ) ;
#196 = CYLINDRICAL_SURFACE ( 'NONE', #212, 11.24999999999999822 ) ;
#197 = CARTESIAN_POINT ( 'NONE',  ( 0.000000000000000000, 0.000000000000000000, 13.00000000000000000 ) ) ;
#198 = CARTESIAN_POINT ( 'NONE',  ( 11.24999999999999822, 1.377727649040771797E-15, 0.000000000000000000 ) ) ;
#199 = AXIS2_PLACEMENT_3D ( 'NONE', #39, #174, #9 ) ;
#200 = ORIENTED_EDGE ( 'NONE', *, *, #149, .F. ) ;
#201 = ADVANCED_FACE ( 'NONE', ( #29 ), #165, .T. ) ;
#202 = CARTESIAN_POINT ( 'NONE',  ( 0.000000000000000000, 0.000000000000000000, 0.000000000000000000 ) ) ;
#203 = FACE_BOUND ( 'NONE', #38, .T. ) ;
#204 = SHAPE_DEFINITION_REPRESENTATION ( #17, #55 ) ;
#205 = PRESENTATION_LAYER_ASSIGNMENT (  '', '', ( #103 ) ) ;
#206 = CARTESIAN_POINT ( 'NONE',  ( 0.000000000000000000, 0.000000000000000000, 13.00000000000000000 ) ) ;
#207 = EDGE_LOOP ( 'NONE', ( #96, #137, #210, #62 ) ) ;
#208 = AXIS2_PLACEMENT_3D ( 'NONE', #47, #162, #125 ) ;
#209 = ADVANCED_FACE ( 'NONE', ( #12 ), #78, .T. ) ;
#210 = ORIENTED_EDGE ( 'NONE', *, *, #211, .T. ) ;
#211 = EDGE_CURVE ( 'NONE', #22, #121, #59, .T. ) ;
#212 = AXIS2_PLACEMENT_3D ( 'NONE', #11, #124, #61 ) ;
#213 = EDGE_CURVE ( 'NONE', #121, #22, #190, .T. ) ;
#214 = ORIENTED_EDGE ( 'NONE', *, *, #192, .F. ) ;
ENDSEC;
END-ISO-10303-21;
