ISO-10303-21;
HEADER;
/* Generated by software containing ST-Developer
 * from STEP Tools, Inc. (www.steptools.com) 
 */

FILE_DESCRIPTION(
/* description */ (''),
/* implementation_level */ '2;1');

FILE_NAME(
/* name */ 'Goupille Bouche Aspirateur v1.step',
/* time_stamp */ '2023-09-17T11:13:07+02:00',
/* author */ (''),
/* organization */ (''),
/* preprocessor_version */ 'ST-DEVELOPER v20',
/* originating_system */ 'Autodesk Translation Framework v12.9.0.99',
/* authorisation */ '');

FILE_SCHEMA (('AUTOMOTIVE_DESIGN { 1 0 10303 214 3 1 1 }'));
ENDSEC;

DATA;
#10=MECHANICAL_DESIGN_GEOMETRIC_PRESENTATION_REPRESENTATION('',(#13),#180);
#11=SHAPE_REPRESENTATION_RELATIONSHIP('SRR','None',#187,#12);
#12=ADVANCED_BREP_SHAPE_REPRESENTATION('',(#14),#179);
#13=STYLED_ITEM('',(#196),#14);
#14=MANIFOLD_SOLID_BREP('Corps1',#80);
#15=FACE_BOUND('',#36,.T.);
#16=PLANE('',#99);
#17=PLANE('',#103);
#18=PLANE('',#104);
#19=LINE('',#166,#21);
#20=LINE('',#173,#22);
#21=VECTOR('',#115,1.3);
#22=VECTOR('',#124,1.7);
#23=CYLINDRICAL_SURFACE('',#97,1.3);
#24=CYLINDRICAL_SURFACE('',#100,1.7);
#25=FACE_OUTER_BOUND('',#31,.T.);
#26=FACE_OUTER_BOUND('',#32,.T.);
#27=FACE_OUTER_BOUND('',#33,.T.);
#28=FACE_OUTER_BOUND('',#34,.T.);
#29=FACE_OUTER_BOUND('',#35,.T.);
#30=FACE_OUTER_BOUND('',#37,.T.);
#31=EDGE_LOOP('',(#57,#58,#59,#60));
#32=EDGE_LOOP('',(#61,#62,#63,#64));
#33=EDGE_LOOP('',(#65));
#34=EDGE_LOOP('',(#66,#67,#68,#69));
#35=EDGE_LOOP('',(#70));
#36=EDGE_LOOP('',(#71));
#37=EDGE_LOOP('',(#72));
#38=CIRCLE('',#94,0.3);
#39=CIRCLE('',#95,1.);
#40=CIRCLE('',#96,1.3);
#41=CIRCLE('',#98,1.3);
#42=CIRCLE('',#101,1.7);
#43=CIRCLE('',#102,1.7);
#44=VERTEX_POINT('',#159);
#45=VERTEX_POINT('',#161);
#46=VERTEX_POINT('',#165);
#47=VERTEX_POINT('',#170);
#48=VERTEX_POINT('',#172);
#49=EDGE_CURVE('',#44,#44,#38,.T.);
#50=EDGE_CURVE('',#44,#45,#39,.T.);
#51=EDGE_CURVE('',#45,#45,#40,.T.);
#52=EDGE_CURVE('',#45,#46,#19,.T.);
#53=EDGE_CURVE('',#46,#46,#41,.T.);
#54=EDGE_CURVE('',#47,#47,#42,.T.);
#55=EDGE_CURVE('',#47,#48,#20,.T.);
#56=EDGE_CURVE('',#48,#48,#43,.T.);
#57=ORIENTED_EDGE('',*,*,#49,.T.);
#58=ORIENTED_EDGE('',*,*,#50,.T.);
#59=ORIENTED_EDGE('',*,*,#51,.T.);
#60=ORIENTED_EDGE('',*,*,#50,.F.);
#61=ORIENTED_EDGE('',*,*,#51,.F.);
#62=ORIENTED_EDGE('',*,*,#52,.T.);
#63=ORIENTED_EDGE('',*,*,#53,.F.);
#64=ORIENTED_EDGE('',*,*,#52,.F.);
#65=ORIENTED_EDGE('',*,*,#49,.F.);
#66=ORIENTED_EDGE('',*,*,#54,.F.);
#67=ORIENTED_EDGE('',*,*,#55,.T.);
#68=ORIENTED_EDGE('',*,*,#56,.T.);
#69=ORIENTED_EDGE('',*,*,#55,.F.);
#70=ORIENTED_EDGE('',*,*,#54,.T.);
#71=ORIENTED_EDGE('',*,*,#53,.T.);
#72=ORIENTED_EDGE('',*,*,#56,.F.);
#73=(
BOUNDED_SURFACE()
B_SPLINE_SURFACE(2,2,((#132,#133,#134,#135,#136,#137,#138,#139,#140),(#141,
#142,#143,#144,#145,#146,#147,#148,#149),(#150,#151,#152,#153,#154,#155,
#156,#157,#158)),.UNSPECIFIED.,.F.,.T.,.F.)
B_SPLINE_SURFACE_WITH_KNOTS((3,3),(3,2,2,2,3),(0.,1.5707963267949),(-3.14159265358979,
-1.5707963267949,0.,1.5707963267949,3.14159265358979),.UNSPECIFIED.)
GEOMETRIC_REPRESENTATION_ITEM()
RATIONAL_B_SPLINE_SURFACE(((1.,0.707106781186548,1.,0.707106781186548,1.,
0.707106781186548,1.,0.707106781186548,1.),(0.707106781186549,0.500000000000001,
0.707106781186549,0.500000000000001,0.707106781186549,0.500000000000001,
0.707106781186549,0.500000000000001,0.707106781186549),(1.,0.707106781186548,
1.,0.707106781186548,1.,0.707106781186548,1.,0.707106781186548,1.)))
REPRESENTATION_ITEM('')
SURFACE()
);
#74=ADVANCED_FACE('',(#25),#73,.F.);
#75=ADVANCED_FACE('',(#26),#23,.T.);
#76=ADVANCED_FACE('',(#27),#16,.T.);
#77=ADVANCED_FACE('',(#28),#24,.T.);
#78=ADVANCED_FACE('',(#29,#15),#17,.T.);
#79=ADVANCED_FACE('',(#30),#18,.F.);
#80=CLOSED_SHELL('',(#74,#75,#76,#77,#78,#79));
#81=DERIVED_UNIT_ELEMENT(#83,1.);
#82=DERIVED_UNIT_ELEMENT(#182,-3.);
#83=(
MASS_UNIT()
NAMED_UNIT(*)
SI_UNIT(.KILO.,.GRAM.)
);
#84=DERIVED_UNIT((#81,#82));
#85=MEASURE_REPRESENTATION_ITEM('density measure',
POSITIVE_RATIO_MEASURE(1290.),#84);
#86=PROPERTY_DEFINITION_REPRESENTATION(#91,#88);
#87=PROPERTY_DEFINITION_REPRESENTATION(#92,#89);
#88=REPRESENTATION('material name',(#90),#179);
#89=REPRESENTATION('density',(#85),#179);
#90=DESCRIPTIVE_REPRESENTATION_ITEM('Plastique','Plastique');
#91=PROPERTY_DEFINITION('material property','material name',#189);
#92=PROPERTY_DEFINITION('material property','density of part',#189);
#93=AXIS2_PLACEMENT_3D('',#131,#105,#106);
#94=AXIS2_PLACEMENT_3D('',#160,#107,#108);
#95=AXIS2_PLACEMENT_3D('',#162,#109,#110);
#96=AXIS2_PLACEMENT_3D('',#163,#111,#112);
#97=AXIS2_PLACEMENT_3D('',#164,#113,#114);
#98=AXIS2_PLACEMENT_3D('',#167,#116,#117);
#99=AXIS2_PLACEMENT_3D('',#168,#118,#119);
#100=AXIS2_PLACEMENT_3D('',#169,#120,#121);
#101=AXIS2_PLACEMENT_3D('',#171,#122,#123);
#102=AXIS2_PLACEMENT_3D('',#174,#125,#126);
#103=AXIS2_PLACEMENT_3D('',#175,#127,#128);
#104=AXIS2_PLACEMENT_3D('',#176,#129,#130);
#105=DIRECTION('axis',(0.,0.,1.));
#106=DIRECTION('refdir',(1.,0.,0.));
#107=DIRECTION('center_axis',(0.,0.,-1.));
#108=DIRECTION('ref_axis',(1.,0.,0.));
#109=DIRECTION('center_axis',(1.22464679914735E-16,-1.,0.));
#110=DIRECTION('ref_axis',(-1.,-1.22464679914735E-16,0.));
#111=DIRECTION('center_axis',(0.,0.,1.));
#112=DIRECTION('ref_axis',(1.,0.,0.));
#113=DIRECTION('center_axis',(0.,0.,1.));
#114=DIRECTION('ref_axis',(1.,0.,0.));
#115=DIRECTION('',(0.,0.,-1.));
#116=DIRECTION('center_axis',(0.,0.,-1.));
#117=DIRECTION('ref_axis',(1.,0.,0.));
#118=DIRECTION('center_axis',(0.,0.,1.));
#119=DIRECTION('ref_axis',(1.,0.,0.));
#120=DIRECTION('center_axis',(0.,0.,1.));
#121=DIRECTION('ref_axis',(1.,0.,0.));
#122=DIRECTION('center_axis',(0.,0.,1.));
#123=DIRECTION('ref_axis',(1.,0.,0.));
#124=DIRECTION('',(0.,0.,-1.));
#125=DIRECTION('center_axis',(0.,0.,1.));
#126=DIRECTION('ref_axis',(1.,0.,0.));
#127=DIRECTION('center_axis',(0.,0.,1.));
#128=DIRECTION('ref_axis',(1.,0.,0.));
#129=DIRECTION('center_axis',(0.,0.,1.));
#130=DIRECTION('ref_axis',(1.,0.,0.));
#131=CARTESIAN_POINT('',(0.,0.,0.));
#132=CARTESIAN_POINT('Ctrl Pts',(-1.3,0.,3.2));
#133=CARTESIAN_POINT('Ctrl Pts',(-1.3,-1.3,3.2));
#134=CARTESIAN_POINT('Ctrl Pts',(0.,-1.3,3.2));
#135=CARTESIAN_POINT('Ctrl Pts',(1.3,-1.3,3.2));
#136=CARTESIAN_POINT('Ctrl Pts',(1.3,0.,3.2));
#137=CARTESIAN_POINT('Ctrl Pts',(1.3,1.3,3.2));
#138=CARTESIAN_POINT('Ctrl Pts',(0.,1.3,3.2));
#139=CARTESIAN_POINT('Ctrl Pts',(-1.3,1.3,3.2));
#140=CARTESIAN_POINT('Ctrl Pts',(-1.3,0.,3.2));
#141=CARTESIAN_POINT('Ctrl Pts',(-1.3,0.,4.2));
#142=CARTESIAN_POINT('Ctrl Pts',(-1.3,-1.3,4.2));
#143=CARTESIAN_POINT('Ctrl Pts',(0.,-1.3,4.2));
#144=CARTESIAN_POINT('Ctrl Pts',(1.3,-1.3,4.2));
#145=CARTESIAN_POINT('Ctrl Pts',(1.3,0.,4.2));
#146=CARTESIAN_POINT('Ctrl Pts',(1.3,1.3,4.2));
#147=CARTESIAN_POINT('Ctrl Pts',(0.,1.3,4.2));
#148=CARTESIAN_POINT('Ctrl Pts',(-1.3,1.3,4.2));
#149=CARTESIAN_POINT('Ctrl Pts',(-1.3,0.,4.2));
#150=CARTESIAN_POINT('Ctrl Pts',(-0.3,0.,4.2));
#151=CARTESIAN_POINT('Ctrl Pts',(-0.3,-0.3,4.2));
#152=CARTESIAN_POINT('Ctrl Pts',(0.,-0.3,4.2));
#153=CARTESIAN_POINT('Ctrl Pts',(0.3,-0.3,4.2));
#154=CARTESIAN_POINT('Ctrl Pts',(0.3,0.,4.2));
#155=CARTESIAN_POINT('Ctrl Pts',(0.3,0.3,4.2));
#156=CARTESIAN_POINT('Ctrl Pts',(0.,0.3,4.2));
#157=CARTESIAN_POINT('Ctrl Pts',(-0.3,0.3,4.2));
#158=CARTESIAN_POINT('Ctrl Pts',(-0.3,0.,4.2));
#159=CARTESIAN_POINT('',(-0.3,3.67394039744206E-17,4.2));
#160=CARTESIAN_POINT('Origin',(0.,0.,4.2));
#161=CARTESIAN_POINT('',(-1.3,-1.59204083889156E-16,3.2));
#162=CARTESIAN_POINT('Origin',(-0.3,-3.67394039744206E-17,3.2));
#163=CARTESIAN_POINT('Origin',(0.,0.,3.2));
#164=CARTESIAN_POINT('Origin',(0.,0.,0.));
#165=CARTESIAN_POINT('',(-1.3,1.59204083889156E-16,1.));
#166=CARTESIAN_POINT('',(-1.3,-1.59204083889156E-16,0.));
#167=CARTESIAN_POINT('Origin',(0.,0.,1.));
#168=CARTESIAN_POINT('Origin',(0.,0.,4.2));
#169=CARTESIAN_POINT('Origin',(0.,0.,0.));
#170=CARTESIAN_POINT('',(-1.7,-2.0818995585505E-16,1.));
#171=CARTESIAN_POINT('Origin',(0.,0.,1.));
#172=CARTESIAN_POINT('',(-1.7,-2.0818995585505E-16,0.));
#173=CARTESIAN_POINT('',(-1.7,-2.0818995585505E-16,0.));
#174=CARTESIAN_POINT('Origin',(0.,0.,0.));
#175=CARTESIAN_POINT('Origin',(0.,0.,1.));
#176=CARTESIAN_POINT('Origin',(0.,0.,0.));
#177=UNCERTAINTY_MEASURE_WITH_UNIT(LENGTH_MEASURE(0.01),#181,
'DISTANCE_ACCURACY_VALUE',
'Maximum model space distance between geometric entities at asserted c
onnectivities');
#178=UNCERTAINTY_MEASURE_WITH_UNIT(LENGTH_MEASURE(0.01),#181,
'DISTANCE_ACCURACY_VALUE',
'Maximum model space distance between geometric entities at asserted c
onnectivities');
#179=(
GEOMETRIC_REPRESENTATION_CONTEXT(3)
GLOBAL_UNCERTAINTY_ASSIGNED_CONTEXT((#177))
GLOBAL_UNIT_ASSIGNED_CONTEXT((#181,#183,#184))
REPRESENTATION_CONTEXT('','3D')
);
#180=(
GEOMETRIC_REPRESENTATION_CONTEXT(3)
GLOBAL_UNCERTAINTY_ASSIGNED_CONTEXT((#178))
GLOBAL_UNIT_ASSIGNED_CONTEXT((#181,#183,#184))
REPRESENTATION_CONTEXT('','3D')
);
#181=(
LENGTH_UNIT()
NAMED_UNIT(*)
SI_UNIT(.MILLI.,.METRE.)
);
#182=(
LENGTH_UNIT()
NAMED_UNIT(*)
SI_UNIT($,.METRE.)
);
#183=(
NAMED_UNIT(*)
PLANE_ANGLE_UNIT()
SI_UNIT($,.RADIAN.)
);
#184=(
NAMED_UNIT(*)
SI_UNIT($,.STERADIAN.)
SOLID_ANGLE_UNIT()
);
#185=SHAPE_DEFINITION_REPRESENTATION(#186,#187);
#186=PRODUCT_DEFINITION_SHAPE('',$,#189);
#187=SHAPE_REPRESENTATION('',(#93),#179);
#188=PRODUCT_DEFINITION_CONTEXT('part definition',#193,'design');
#189=PRODUCT_DEFINITION('Goupille Bouche Aspirateur',
'Goupille Bouche Aspirateur v1',#190,#188);
#190=PRODUCT_DEFINITION_FORMATION('',$,#195);
#191=PRODUCT_RELATED_PRODUCT_CATEGORY('Goupille Bouche Aspirateur v1',
'Goupille Bouche Aspirateur v1',(#195));
#192=APPLICATION_PROTOCOL_DEFINITION('international standard',
'automotive_design',2009,#193);
#193=APPLICATION_CONTEXT(
'Core Data for Automotive Mechanical Design Process');
#194=PRODUCT_CONTEXT('part definition',#193,'mechanical');
#195=PRODUCT('Goupille Bouche Aspirateur',
'Goupille Bouche Aspirateur v1',$,(#194));
#196=PRESENTATION_STYLE_ASSIGNMENT((#197));
#197=SURFACE_STYLE_USAGE(.BOTH.,#198);
#198=SURFACE_SIDE_STYLE('',(#199));
#199=SURFACE_STYLE_FILL_AREA(#200);
#200=FILL_AREA_STYLE('Plastique - Brillant (gris)',(#201));
#201=FILL_AREA_STYLE_COLOUR('Plastique - Brillant (gris)',#202);
#202=COLOUR_RGB('Plastique - Brillant (gris)',0.701960784313725,0.701960784313725,
0.701960784313725);
ENDSEC;
END-ISO-10303-21;
