ISO-10303-21;
HEADER;
FILE_DESCRIPTION (( 'STEP AP214' ),
    '1' );
FILE_NAME ('Bielle 2.STEP',
    '2020-12-14T07:35:02',
    ( '' ),
    ( '' ),
    'SwSTEP 2.0',
    'SolidWorks 2014',
    '' );
FILE_SCHEMA (( 'AUTOMOTIVE_DESIGN' ));
ENDSEC;

DATA;
#1 = DIRECTION ( 'NONE',  ( 0.0000000000000000000, 0.0000000000000000000, 1.000000000000000000 ) ) ;
#2 = ORIENTED_EDGE ( 'NONE', *, *, #14, .F. ) ;
#3 = CARTESIAN_POINT ( 'NONE',  ( 19.99999999999999600, 60.00000000000000000, 15.00000000000000000 ) ) ;
#4 = CARTESIAN_POINT ( 'NONE',  ( 0.0000000000000000000, 49.99999999999999300, 15.00000000000000000 ) ) ;
#5 = AXIS2_PLACEMENT_3D ( 'NONE', #113, #376, #119 ) ;
#6 = VECTOR ( 'NONE', #57, 1000.000000000000000 ) ;
#7 = CARTESIAN_POINT ( 'NONE',  ( 15.00000000000000000, 49.99999999999999300, 15.00000000000000200 ) ) ;
#8 = ORIENTED_EDGE ( 'NONE', *, *, #44, .T. ) ;
#9 = FILL_AREA_STYLE ('',( #282 ) ) ;
#10 = CARTESIAN_POINT ( 'NONE',  ( 19.99999999999999600, 60.00000000000000000, 0.0000000000000000000 ) ) ;
#11 = ADVANCED_FACE ( 'NONE', ( #229, #129 ), #178, .T. ) ;
#12 = ORIENTED_EDGE ( 'NONE', *, *, #349, .F. ) ;
#13 =( NAMED_UNIT ( * ) PLANE_ANGLE_UNIT ( ) SI_UNIT ( $, .RADIAN. ) );
#14 = EDGE_CURVE ( 'NONE', #217, #33, #222, .T. ) ;
#15 = ADVANCED_FACE ( 'NONE', ( #273 ), #261, .T. ) ;
#16 = PRODUCT ( 'Bielle 2', 'Bielle 2', '', ( #202 ) ) ;
#17 =( LENGTH_UNIT ( ) NAMED_UNIT ( * ) SI_UNIT ( .MILLI., .METRE. ) );
#18 = EDGE_LOOP ( 'NONE', ( #368, #8, #2, #54 ) ) ;
#19 = ORIENTED_EDGE ( 'NONE', *, *, #168, .F. ) ;
#20 = AXIS2_PLACEMENT_3D ( 'NONE', #223, #252, #100 ) ;
#21 = VERTEX_POINT ( 'NONE', #268 ) ;
#22 = VERTEX_POINT ( 'NONE', #265 ) ;
#23 = EDGE_CURVE ( 'NONE', #335, #177, #316, .T. ) ;
#24 = DIRECTION ( 'NONE',  ( -0.0000000000000000000, -0.0000000000000000000, 1.000000000000000000 ) ) ;
#25 = FACE_OUTER_BOUND ( 'NONE', #97, .T. ) ;
#26 = LINE ( 'NONE', #299, #59 ) ;
#27 = DIRECTION ( 'NONE',  ( -1.000000000000000000, 0.0000000000000000000, 0.0000000000000000000 ) ) ;
#28 = AXIS2_PLACEMENT_3D ( 'NONE', #7, #42, #329 ) ;
#29 = CARTESIAN_POINT ( 'NONE',  ( 15.00000000000000000, 49.99999999999999300, 0.0000000000000000000 ) ) ;
#30 = DIRECTION ( 'NONE',  ( -0.0000000000000000000, -0.0000000000000000000, 1.000000000000000000 ) ) ;
#31 = CARTESIAN_POINT ( 'NONE',  ( 0.0000000000000000000, 0.0000000000000000000, 15.00000000000000000 ) ) ;
#32 = ADVANCED_BREP_SHAPE_REPRESENTATION ( 'Bielle 2', ( #369, #132 ), #264 ) ;
#33 = VERTEX_POINT ( 'NONE', #182 ) ;
#34 = DIRECTION ( 'NONE',  ( 0.0000000000000000000, -0.0000000000000000000, -1.000000000000000000 ) ) ;
#35 = AXIS2_PLACEMENT_3D ( 'NONE', #67, #246, #158 ) ;
#36 = CARTESIAN_POINT ( 'NONE',  ( 0.0000000000000000000, 0.0000000000000000000, 15.00000000000000000 ) ) ;
#37 = ORIENTED_EDGE ( 'NONE', *, *, #304, .T. ) ;
#38 = EDGE_CURVE ( 'NONE', #177, #335, #341, .T. ) ;
#39 = SURFACE_STYLE_USAGE ( .BOTH. , #313 ) ;
#40 = CARTESIAN_POINT ( 'NONE',  ( 19.24999999999998900, 49.99999999999999300, 15.00000000000000200 ) ) ;
#41 = ORIENTED_EDGE ( 'NONE', *, *, #204, .T. ) ;
#42 = DIRECTION ( 'NONE',  ( -0.0000000000000000000, -0.0000000000000000000, 1.000000000000000000 ) ) ;
#43 =( LENGTH_UNIT ( ) NAMED_UNIT ( * ) SI_UNIT ( .MILLI., .METRE. ) );
#44 = EDGE_CURVE ( 'NONE', #52, #33, #26, .T. ) ;
#45 = COLOUR_RGB ( '',0.7921568627450980000, 0.8196078431372548800, 0.9333333333333333500 ) ;
#46 = CIRCLE ( 'NONE', #20, 4.249999999999990200 ) ;
#47 = ORIENTED_EDGE ( 'NONE', *, *, #204, .F. ) ;
#48 = AXIS2_PLACEMENT_3D ( 'NONE', #250, #360, #225 ) ;
#49 =( NAMED_UNIT ( * ) SI_UNIT ( $, .STERADIAN. ) SOLID_ANGLE_UNIT ( ) );
#50 = VECTOR ( 'NONE', #104, 1000.000000000000000 ) ;
#51 = ORIENTED_EDGE ( 'NONE', *, *, #145, .T. ) ;
#52 = VERTEX_POINT ( 'NONE', #153 ) ;
#53 = VECTOR ( 'NONE', #220, 1000.000000000000000 ) ;
#54 = ORIENTED_EDGE ( 'NONE', *, *, #163, .T. ) ;
#55 = CARTESIAN_POINT ( 'NONE',  ( 30.00000000000000700, 0.0000000000000000000, 15.00000000000000000 ) ) ;
#56 = EDGE_CURVE ( 'NONE', #305, #72, #239, .T. ) ;
#57 = DIRECTION ( 'NONE',  ( -1.000000000000000000, -0.0000000000000000000, -0.0000000000000000000 ) ) ;
#58 = LINE ( 'NONE', #279, #319 ) ;
#59 = VECTOR ( 'NONE', #24, 1000.000000000000000 ) ;
#60 = ORIENTED_EDGE ( 'NONE', *, *, #77, .T. ) ;
#61 = PRODUCT_DEFINITION ( 'UNKNOWN', '', #283, #143 ) ;
#62 = PLANE ( 'NONE',  #124 ) ;
#63 = SURFACE_STYLE_USAGE ( .BOTH. , #125 ) ;
#64 = FACE_OUTER_BOUND ( 'NONE', #156, .T. ) ;
#65 = ORIENTED_EDGE ( 'NONE', *, *, #201, .T. ) ;
#66 = EDGE_CURVE ( 'NONE', #21, #152, #181, .T. ) ;
#67 = CARTESIAN_POINT ( 'NONE',  ( 10.00000000000000000, 49.99999999999999300, 15.00000000000000000 ) ) ;
#68 = FILL_AREA_STYLE ('',( #93 ) ) ;
#69 =( NAMED_UNIT ( * ) PLANE_ANGLE_UNIT ( ) SI_UNIT ( $, .RADIAN. ) );
#70 = EDGE_CURVE ( 'NONE', #364, #318, #320, .T. ) ;
#71 = CYLINDRICAL_SURFACE ( 'NONE', #94, 4.249999999999993800 ) ;
#72 = VERTEX_POINT ( 'NONE', #267 ) ;
#73 = CARTESIAN_POINT ( 'NONE',  ( 19.99999999999999600, 60.00000000000000000, 15.00000000000000000 ) ) ;
#74 = CARTESIAN_POINT ( 'NONE',  ( 30.00000000000000000, 49.99999999999999300, 15.00000000000000000 ) ) ;
#75 = CIRCLE ( 'NONE', #238, 20.00000000000000000 ) ;
#76 = ORIENTED_EDGE ( 'NONE', *, *, #333, .F. ) ;
#77 = EDGE_CURVE ( 'NONE', #364, #152, #147, .T. ) ;
#78 = EDGE_CURVE ( 'NONE', #33, #22, #165, .T. ) ;
#79 = FACE_BOUND ( 'NONE', #92, .T. ) ;
#80 = EDGE_LOOP ( 'NONE', ( #51, #88, #99, #60 ) ) ;
#81 = EDGE_CURVE ( 'NONE', #122, #21, #327, .T. ) ;
#82 = CYLINDRICAL_SURFACE ( 'NONE', #179, 4.249999999999993800 ) ;
#83 = LINE ( 'NONE', #352, #134 ) ;
#84 = CARTESIAN_POINT ( 'NONE',  ( 30.00000000000000000, 60.00000000000000000, 15.00000000000000000 ) ) ;
#85 = CARTESIAN_POINT ( 'NONE',  ( 15.00000000000000400, -13.22875655532295300, 0.0000000000000000000 ) ) ;
#86 = SURFACE_STYLE_FILL_AREA ( #9 ) ;
#87 = ORIENTED_EDGE ( 'NONE', *, *, #304, .F. ) ;
#88 = ORIENTED_EDGE ( 'NONE', *, *, #349, .T. ) ;
#89 = CARTESIAN_POINT ( 'NONE',  ( 19.99999999999999600, 49.99999999999999300, 15.00000000000000000 ) ) ;
#90 = DIRECTION ( 'NONE',  ( 0.0000000000000000000, -1.000000000000000000, 0.0000000000000000000 ) ) ;
#91 = DIRECTION ( 'NONE',  ( 1.000000000000000000, 0.0000000000000000000, 0.0000000000000000000 ) ) ;
#92 = EDGE_LOOP ( 'NONE', ( #108, #76 ) ) ;
#93 = FILL_AREA_STYLE_COLOUR ( '', #296 ) ;
#94 = AXIS2_PLACEMENT_3D ( 'NONE', #307, #130, #91 ) ;
#95 = PRESENTATION_STYLE_ASSIGNMENT (( #138 ) ) ;
#96 = LINE ( 'NONE', #274, #317 ) ;
#97 = EDGE_LOOP ( 'NONE', ( #249, #371, #198, #280 ) ) ;
#98 = DIRECTION ( 'NONE',  ( -1.000000000000000000, 0.0000000000000000000, 0.0000000000000000000 ) ) ;
#99 = ORIENTED_EDGE ( 'NONE', *, *, #70, .F. ) ;
#100 = DIRECTION ( 'NONE',  ( 1.000000000000000000, 0.0000000000000000000, 0.0000000000000000000 ) ) ;
#101 = ORIENTED_EDGE ( 'NONE', *, *, #163, .F. ) ;
#102 = ADVANCED_FACE ( 'NONE', ( #79, #213 ), #346, .F. ) ;
#103 = STYLED_ITEM ( 'NONE', ( #110 ), #369 ) ;
#104 = DIRECTION ( 'NONE',  ( 0.0000000000000000000, 0.0000000000000000000, -1.000000000000000000 ) ) ;
#105 = ADVANCED_FACE ( 'NONE', ( #374 ), #62, .F. ) ;
#106 =( NAMED_UNIT ( * ) PLANE_ANGLE_UNIT ( ) SI_UNIT ( $, .RADIAN. ) );
#107 = COLOUR_RGB ( '',0.7921568627450980000, 0.8196078431372548800, 0.9333333333333333500 ) ;
#108 = ORIENTED_EDGE ( 'NONE', *, *, #244, .F. ) ;
#109 = AXIS2_PLACEMENT_3D ( 'NONE', #162, #167, #195 ) ;
#110 = PRESENTATION_STYLE_ASSIGNMENT (( #258 ) ) ;
#111 = ORIENTED_EDGE ( 'NONE', *, *, #56, .T. ) ;
#112 = ORIENTED_EDGE ( 'NONE', *, *, #23, .T. ) ;
#113 = CARTESIAN_POINT ( 'NONE',  ( 15.00000000000000000, 49.99999999999999300, 0.0000000000000000000 ) ) ;
#114 =( GEOMETRIC_REPRESENTATION_CONTEXT ( 3 ) GLOBAL_UNCERTAINTY_ASSIGNED_CONTEXT ( ( #118 ) ) GLOBAL_UNIT_ASSIGNED_CONTEXT ( ( #281, #69, #330 ) ) REPRESENTATION_CONTEXT ( 'NONE', 'WORKASPACE' ) );
#115 = EDGE_LOOP ( 'NONE', ( #47, #65, #37, #121 ) ) ;
#116 = DIRECTION ( 'NONE',  ( -1.156482317317871500E-016, 1.000000000000000000, -0.0000000000000000000 ) ) ;
#117 = EDGE_CURVE ( 'NONE', #209, #52, #135, .T. ) ;
#118 = UNCERTAINTY_MEASURE_WITH_UNIT (LENGTH_MEASURE( 1.000000000000000100E-005 ), #281, 'distance_accuracy_value', 'NONE');
#119 = DIRECTION ( 'NONE',  ( 1.000000000000000000, 0.0000000000000000000, 0.0000000000000000000 ) ) ;
#120 = SHAPE_DEFINITION_REPRESENTATION ( #169, #32 ) ;
#121 = ORIENTED_EDGE ( 'NONE', *, *, #81, .F. ) ;
#122 = VERTEX_POINT ( 'NONE', #245 ) ;
#123 = DIRECTION ( 'NONE',  ( 0.0000000000000000000, 0.0000000000000000000, -1.000000000000000000 ) ) ;
#124 = AXIS2_PLACEMENT_3D ( 'NONE', #31, #301, #123 ) ;
#125 = SURFACE_SIDE_STYLE ('',( #260 ) ) ;
#126 = PRESENTATION_STYLE_ASSIGNMENT (( #39 ) ) ;
#127 = EDGE_CURVE ( 'NONE', #177, #256, #96, .T. ) ;
#128 = DIRECTION ( 'NONE',  ( -1.000000000000000000, 0.0000000000000000000, 0.0000000000000000000 ) ) ;
#129 = FACE_OUTER_BOUND ( 'NONE', #351, .T. ) ;
#130 = DIRECTION ( 'NONE',  ( -0.0000000000000000000, -0.0000000000000000000, 1.000000000000000000 ) ) ;
#131 = CARTESIAN_POINT ( 'NONE',  ( 10.75000000000000200, 49.99999999999999300, 0.0000000000000000000 ) ) ;
#132 = AXIS2_PLACEMENT_3D ( 'NONE', #199, #315, #172 ) ;
#133 = DIRECTION ( 'NONE',  ( -0.0000000000000000000, -1.000000000000000000, -0.0000000000000000000 ) ) ;
#134 = VECTOR ( 'NONE', #242, 1000.000000000000000 ) ;
#135 = CIRCLE ( 'NONE', #219, 10.00000000000000000 ) ;
#136 = ORIENTED_EDGE ( 'NONE', *, *, #38, .T. ) ;
#137 = DIRECTION ( 'NONE',  ( 1.000000000000000000, 0.0000000000000000000, 0.0000000000000000000 ) ) ;
#138 = SURFACE_STYLE_USAGE ( .BOTH. , #366 ) ;
#139 = FACE_OUTER_BOUND ( 'NONE', #338, .T. ) ;
#140 = EDGE_LOOP ( 'NONE', ( #236, #12, #270, #101 ) ) ;
#141 = ADVANCED_FACE ( 'NONE', ( #203 ), #303, .F. ) ;
#142 = STYLED_ITEM ( 'NONE', ( #95 ), #32 ) ;
#143 = PRODUCT_DEFINITION_CONTEXT ( 'detailed design', #200, 'design' ) ;
#144 =( NAMED_UNIT ( * ) SI_UNIT ( $, .STERADIAN. ) SOLID_ANGLE_UNIT ( ) );
#145 = EDGE_CURVE ( 'NONE', #152, #72, #367, .T. ) ;
#146 = LINE ( 'NONE', #3, #285 ) ;
#147 = LINE ( 'NONE', #55, #174 ) ;
#148 = CLOSED_SHELL ( 'NONE', ( #362, #196, #365, #141, #105, #102, #11, #173, #286, #15 ) ) ;
#149 = AXIS2_PLACEMENT_3D ( 'NONE', #218, #1, #215 ) ;
#150 = PRESENTATION_LAYER_ASSIGNMENT (  '', '', ( #103 ) ) ;
#151 = FACE_OUTER_BOUND ( 'NONE', #331, .T. ) ;
#152 = VERTEX_POINT ( 'NONE', #191 ) ;
#153 = CARTESIAN_POINT ( 'NONE',  ( 10.00000000000000000, 60.00000000000000000, 0.0000000000000000000 ) ) ;
#154 = EDGE_CURVE ( 'NONE', #318, #217, #235, .T. ) ;
#155 = CARTESIAN_POINT ( 'NONE',  ( 15.00000000000000400, -13.22875655532295300, 0.0000000000000000000 ) ) ;
#156 = EDGE_LOOP ( 'NONE', ( #214, #234, #224, #297 ) ) ;
#157 = CARTESIAN_POINT ( 'NONE',  ( 30.00000000000000000, 60.00000000000000000, 0.0000000000000000000 ) ) ;
#158 = DIRECTION ( 'NONE',  ( -1.000000000000000000, 0.0000000000000000000, 0.0000000000000000000 ) ) ;
#159 = ORIENTED_EDGE ( 'NONE', *, *, #44, .F. ) ;
#160 = DIRECTION ( 'NONE',  ( -1.156482317317871500E-016, 1.000000000000000000, -0.0000000000000000000 ) ) ;
#161 = PRODUCT_RELATED_PRODUCT_CATEGORY ( 'part', '', ( #16 ) ) ;
#162 = CARTESIAN_POINT ( 'NONE',  ( 10.00000000000000000, 49.99999999999999300, 15.00000000000000000 ) ) ;
#163 = EDGE_CURVE ( 'NONE', #217, #305, #146, .T. ) ;
#164 = CARTESIAN_POINT ( 'NONE',  ( 15.00000000000000000, 49.99999999999999300, 15.00000000000000000 ) ) ;
#165 = CIRCLE ( 'NONE', #35, 10.00000000000000000 ) ;
#166 = ORIENTED_EDGE ( 'NONE', *, *, #23, .F. ) ;
#167 = DIRECTION ( 'NONE',  ( 0.0000000000000000000, 0.0000000000000000000, -1.000000000000000000 ) ) ;
#168 = EDGE_CURVE ( 'NONE', #305, #52, #83, .T. ) ;
#169 = PRODUCT_DEFINITION_SHAPE ( 'NONE', 'NONE',  #61 ) ;
#170 = PLANE ( 'NONE',  #48 ) ;
#171 = VECTOR ( 'NONE', #193, 1000.000000000000000 ) ;
#172 = DIRECTION ( 'NONE',  ( 1.000000000000000000, 0.0000000000000000000, 0.0000000000000000000 ) ) ;
#173 = ADVANCED_FACE ( 'NONE', ( #64 ), #71, .F. ) ;
#174 = VECTOR ( 'NONE', #216, 1000.000000000000000 ) ;
#175 = AXIS2_PLACEMENT_3D ( 'NONE', #85, #293, #241 ) ;
#176 =( LENGTH_UNIT ( ) NAMED_UNIT ( * ) SI_UNIT ( .MILLI., .METRE. ) );
#177 = VERTEX_POINT ( 'NONE', #300 ) ;
#178 = PLANE ( 'NONE',  #207 ) ;
#179 = AXIS2_PLACEMENT_3D ( 'NONE', #164, #354, #137 ) ;
#180 = VECTOR ( 'NONE', #133, 1000.000000000000000 ) ;
#181 = CIRCLE ( 'NONE', #175, 20.00000000000000000 ) ;
#182 = CARTESIAN_POINT ( 'NONE',  ( 10.00000000000000000, 60.00000000000000000, 15.00000000000000000 ) ) ;
#183 = EDGE_CURVE ( 'NONE', #122, #364, #75, .T. ) ;
#184 = DIRECTION ( 'NONE',  ( -0.0000000000000000000, 0.0000000000000000000, -1.000000000000000000 ) ) ;
#185 =( NAMED_UNIT ( * ) PLANE_ANGLE_UNIT ( ) SI_UNIT ( $, .RADIAN. ) );
#186 = MECHANICAL_DESIGN_GEOMETRIC_PRESENTATION_REPRESENTATION (  '', ( #211 ), #251 ) ;
#187 = DIRECTION ( 'NONE',  ( -0.0000000000000000000, 0.0000000000000000000, -1.000000000000000000 ) ) ;
#188 = ORIENTED_EDGE ( 'NONE', *, *, #183, .T. ) ;
#189 = MECHANICAL_DESIGN_GEOMETRIC_PRESENTATION_REPRESENTATION (  '', ( #103 ), #275 ) ;
#190 = DIRECTION ( 'NONE',  ( -0.0000000000000000000, -0.0000000000000000000, -1.000000000000000000 ) ) ;
#191 = CARTESIAN_POINT ( 'NONE',  ( 30.00000000000000700, 0.0000000000000000000, 0.0000000000000000000 ) ) ;
#192 = DIRECTION ( 'NONE',  ( -0.0000000000000000000, -0.0000000000000000000, -1.000000000000000000 ) ) ;
#193 = DIRECTION ( 'NONE',  ( -0.0000000000000000000, -0.0000000000000000000, 1.000000000000000000 ) ) ;
#194 = AXIS2_PLACEMENT_3D ( 'NONE', #359, #192, #98 ) ;
#195 = DIRECTION ( 'NONE',  ( -1.000000000000000000, 0.0000000000000000000, 0.0000000000000000000 ) ) ;
#196 = ADVANCED_FACE ( 'NONE', ( #25 ), #243, .F. ) ;
#197 = FACE_OUTER_BOUND ( 'NONE', #80, .T. ) ;
#198 = ORIENTED_EDGE ( 'NONE', *, *, #183, .F. ) ;
#199 = CARTESIAN_POINT ( 'NONE',  ( 0.0000000000000000000, 0.0000000000000000000, 0.0000000000000000000 ) ) ;
#200 = APPLICATION_CONTEXT ( 'automotive_design' ) ;
#201 = EDGE_CURVE ( 'NONE', #22, #209, #370, .T. ) ;
#202 = PRODUCT_CONTEXT ( 'NONE', #363, 'mechanical' ) ;
#203 = FACE_OUTER_BOUND ( 'NONE', #18, .T. ) ;
#204 = EDGE_CURVE ( 'NONE', #22, #122, #302, .T. ) ;
#205 = ORIENTED_EDGE ( 'NONE', *, *, #117, .T. ) ;
#206 = PRESENTATION_LAYER_ASSIGNMENT (  '', '', ( #211 ) ) ;
#207 = AXIS2_PLACEMENT_3D ( 'NONE', #155, #184, #237 ) ;
#208 = COLOUR_RGB ( '',0.7921568627450980000, 0.8196078431372548800, 0.9333333333333333500 ) ;
#209 = VERTEX_POINT ( 'NONE', #328 ) ;
#210 = CARTESIAN_POINT ( 'NONE',  ( 0.0000000000000000000, 60.00000000000000000, 15.00000000000000000 ) ) ;
#211 = STYLED_ITEM ( 'NONE', ( #340 ), #173 ) ;
#212 = CIRCLE ( 'NONE', #28, 4.249999999999990200 ) ;
#213 = FACE_OUTER_BOUND ( 'NONE', #358, .T. ) ;
#214 = ORIENTED_EDGE ( 'NONE', *, *, #312, .F. ) ;
#215 = DIRECTION ( 'NONE',  ( -1.000000000000000000, 0.0000000000000000000, 0.0000000000000000000 ) ) ;
#216 = DIRECTION ( 'NONE',  ( -0.0000000000000000000, -0.0000000000000000000, -1.000000000000000000 ) ) ;
#217 = VERTEX_POINT ( 'NONE', #73 ) ;
#218 = CARTESIAN_POINT ( 'NONE',  ( 19.99999999999999600, 49.99999999999999300, 15.00000000000000000 ) ) ;
#219 = AXIS2_PLACEMENT_3D ( 'NONE', #348, #190, #306 ) ;
#220 = DIRECTION ( 'NONE',  ( -0.0000000000000000000, -0.0000000000000000000, 1.000000000000000000 ) ) ;
#221 = CARTESIAN_POINT ( 'NONE',  ( 30.00000000000000700, 0.0000000000000000000, 15.00000000000000000 ) ) ;
#222 = LINE ( 'NONE', #210, #6 ) ;
#223 = CARTESIAN_POINT ( 'NONE',  ( 15.00000000000000000, 49.99999999999999300, 15.00000000000000200 ) ) ;
#224 = ORIENTED_EDGE ( 'NONE', *, *, #127, .T. ) ;
#225 = DIRECTION ( 'NONE',  ( 1.156482317317871500E-016, -1.000000000000000000, 0.0000000000000000000 ) ) ;
#226 = AXIS2_PLACEMENT_3D ( 'NONE', #347, #90, #34 ) ;
#227 = APPLICATION_PROTOCOL_DEFINITION ( 'draft international standard', 'automotive_design', 1998, #363 ) ;
#228 = LINE ( 'NONE', #255, #53 ) ;
#229 = FACE_BOUND ( 'NONE', #266, .T. ) ;
#230 = FILL_AREA_STYLE ('',( #289 ) ) ;
#231 = CYLINDRICAL_SURFACE ( 'NONE', #109, 10.00000000000000000 ) ;
#232 = PRESENTATION_LAYER_ASSIGNMENT (  '', '', ( #372 ) ) ;
#233 =( NAMED_UNIT ( * ) PLANE_ANGLE_UNIT ( ) SI_UNIT ( $, .RADIAN. ) );
#234 = ORIENTED_EDGE ( 'NONE', *, *, #38, .F. ) ;
#235 = CIRCLE ( 'NONE', #149, 10.00000000000000000 ) ;
#236 = ORIENTED_EDGE ( 'NONE', *, *, #154, .F. ) ;
#237 = DIRECTION ( 'NONE',  ( -1.000000000000000000, 0.0000000000000000000, 0.0000000000000000000 ) ) ;
#238 = AXIS2_PLACEMENT_3D ( 'NONE', #277, #253, #276 ) ;
#239 = CIRCLE ( 'NONE', #356, 10.00000000000000000 ) ;
#240 = ORIENTED_EDGE ( 'NONE', *, *, #201, .F. ) ;
#241 = DIRECTION ( 'NONE',  ( -1.000000000000000000, 0.0000000000000000000, 0.0000000000000000000 ) ) ;
#242 = DIRECTION ( 'NONE',  ( -1.000000000000000000, -0.0000000000000000000, -0.0000000000000000000 ) ) ;
#243 = CYLINDRICAL_SURFACE ( 'NONE', #194, 20.00000000000000000 ) ;
#244 = EDGE_CURVE ( 'NONE', #256, #345, #212, .T. ) ;
#245 = CARTESIAN_POINT ( 'NONE',  ( 0.0000000000000000000, 0.0000000000000000000, 15.00000000000000000 ) ) ;
#246 = DIRECTION ( 'NONE',  ( 0.0000000000000000000, 0.0000000000000000000, 1.000000000000000000 ) ) ;
#247 = CARTESIAN_POINT ( 'NONE',  ( 10.75000000000000900, 49.99999999999999300, 15.00000000000000200 ) ) ;
#248 = VECTOR ( 'NONE', #116, 1000.000000000000000 ) ;
#249 = ORIENTED_EDGE ( 'NONE', *, *, #66, .T. ) ;
#250 = CARTESIAN_POINT ( 'NONE',  ( 30.00000000000000000, 60.00000000000000000, 15.00000000000000000 ) ) ;
#251 =( GEOMETRIC_REPRESENTATION_CONTEXT ( 3 ) GLOBAL_UNCERTAINTY_ASSIGNED_CONTEXT ( ( #294 ) ) GLOBAL_UNIT_ASSIGNED_CONTEXT ( ( #325, #185, #378 ) ) REPRESENTATION_CONTEXT ( 'NONE', 'WORKASPACE' ) );
#252 = DIRECTION ( 'NONE',  ( -0.0000000000000000000, -0.0000000000000000000, 1.000000000000000000 ) ) ;
#253 = DIRECTION ( 'NONE',  ( -0.0000000000000000000, -0.0000000000000000000, -1.000000000000000000 ) ) ;
#254 = ORIENTED_EDGE ( 'NONE', *, *, #145, .F. ) ;
#255 = CARTESIAN_POINT ( 'NONE',  ( 10.75000000000000500, 49.99999999999999300, 15.00000000000000000 ) ) ;
#256 = VERTEX_POINT ( 'NONE', #40 ) ;
#257 = APPLICATION_PROTOCOL_DEFINITION ( 'draft international standard', 'automotive_design', 1998, #200 ) ;
#258 = SURFACE_STYLE_USAGE ( .BOTH. , #332 ) ;
#259 = AXIS2_PLACEMENT_3D ( 'NONE', #89, #344, #339 ) ;
#260 = SURFACE_STYLE_FILL_AREA ( #68 ) ;
#261 = CYLINDRICAL_SURFACE ( 'NONE', #259, 10.00000000000000000 ) ;
#262 = ORIENTED_EDGE ( 'NONE', *, *, #127, .F. ) ;
#263 = ORIENTED_EDGE ( 'NONE', *, *, #117, .F. ) ;
#264 =( GEOMETRIC_REPRESENTATION_CONTEXT ( 3 ) GLOBAL_UNCERTAINTY_ASSIGNED_CONTEXT ( ( #373 ) ) GLOBAL_UNIT_ASSIGNED_CONTEXT ( ( #176, #233, #334 ) ) REPRESENTATION_CONTEXT ( 'NONE', 'WORKASPACE' ) );
#265 = CARTESIAN_POINT ( 'NONE',  ( 0.0000000000000000000, 49.99999999999999300, 15.00000000000000000 ) ) ;
#266 = EDGE_LOOP ( 'NONE', ( #136, #112 ) ) ;
#267 = CARTESIAN_POINT ( 'NONE',  ( 30.00000000000000000, 49.99999999999999300, 0.0000000000000000000 ) ) ;
#268 = CARTESIAN_POINT ( 'NONE',  ( 0.0000000000000000000, 0.0000000000000000000, 0.0000000000000000000 ) ) ;
#269 = PRESENTATION_LAYER_ASSIGNMENT (  '', '', ( #142 ) ) ;
#270 = ORIENTED_EDGE ( 'NONE', *, *, #56, .F. ) ;
#271 = DIRECTION ( 'NONE',  ( -0.0000000000000000000, -0.0000000000000000000, -1.000000000000000000 ) ) ;
#272 = DIRECTION ( 'NONE',  ( 0.0000000000000000000, 0.0000000000000000000, -1.000000000000000000 ) ) ;
#273 = FACE_OUTER_BOUND ( 'NONE', #140, .T. ) ;
#274 = CARTESIAN_POINT ( 'NONE',  ( 19.24999999999999300, 49.99999999999999300, 15.00000000000000000 ) ) ;
#275 =( GEOMETRIC_REPRESENTATION_CONTEXT ( 3 ) GLOBAL_UNCERTAINTY_ASSIGNED_CONTEXT ( ( #361 ) ) GLOBAL_UNIT_ASSIGNED_CONTEXT ( ( #43, #13, #49 ) ) REPRESENTATION_CONTEXT ( 'NONE', 'WORKASPACE' ) );
#276 = DIRECTION ( 'NONE',  ( -1.000000000000000000, 0.0000000000000000000, 0.0000000000000000000 ) ) ;
#277 = CARTESIAN_POINT ( 'NONE',  ( 15.00000000000000400, -13.22875655532295300, 15.00000000000000000 ) ) ;
#278 = SURFACE_STYLE_FILL_AREA ( #230 ) ;
#279 = CARTESIAN_POINT ( 'NONE',  ( 0.0000000000000000000, 0.0000000000000000000, 0.0000000000000000000 ) ) ;
#280 = ORIENTED_EDGE ( 'NONE', *, *, #81, .T. ) ;
#281 =( LENGTH_UNIT ( ) NAMED_UNIT ( * ) SI_UNIT ( .MILLI., .METRE. ) );
#282 = FILL_AREA_STYLE_COLOUR ( '', #208 ) ;
#283 = PRODUCT_DEFINITION_FORMATION_WITH_SPECIFIED_SOURCE ( 'ANY', '', #16, .NOT_KNOWN. ) ;
#284 = FILL_AREA_STYLE ('',( #353 ) ) ;
#285 = VECTOR ( 'NONE', #272, 1000.000000000000000 ) ;
#286 = ADVANCED_FACE ( 'NONE', ( #139 ), #231, .T. ) ;
#287 = ORIENTED_EDGE ( 'NONE', *, *, #70, .T. ) ;
#288 =( GEOMETRIC_REPRESENTATION_CONTEXT ( 3 ) GLOBAL_UNCERTAINTY_ASSIGNED_CONTEXT ( ( #342 ) ) GLOBAL_UNIT_ASSIGNED_CONTEXT ( ( #17, #106, #144 ) ) REPRESENTATION_CONTEXT ( 'NONE', 'WORKASPACE' ) );
#289 = FILL_AREA_STYLE_COLOUR ( '', #45 ) ;
#290 = LINE ( 'NONE', #74, #171 ) ;
#291 = CARTESIAN_POINT ( 'NONE',  ( 19.99999999999999600, 49.99999999999999300, 0.0000000000000000000 ) ) ;
#292 = MECHANICAL_DESIGN_GEOMETRIC_PRESENTATION_REPRESENTATION (  '', ( #142 ), #288 ) ;
#293 = DIRECTION ( 'NONE',  ( -0.0000000000000000000, -0.0000000000000000000, -1.000000000000000000 ) ) ;
#294 = UNCERTAINTY_MEASURE_WITH_UNIT (LENGTH_MEASURE( 1.000000000000000100E-005 ), #325, 'distance_accuracy_value', 'NONE');
#295 = DIRECTION ( 'NONE',  ( 1.000000000000000000, 0.0000000000000000000, 0.0000000000000000000 ) ) ;
#296 = COLOUR_RGB ( '',0.7921568627450980000, 0.8196078431372548800, 0.9333333333333333500 ) ;
#297 = ORIENTED_EDGE ( 'NONE', *, *, #244, .T. ) ;
#298 = ORIENTED_EDGE ( 'NONE', *, *, #312, .T. ) ;
#299 = CARTESIAN_POINT ( 'NONE',  ( 10.00000000000000000, 60.00000000000000000, 15.00000000000000000 ) ) ;
#300 = CARTESIAN_POINT ( 'NONE',  ( 19.24999999999999600, 49.99999999999999300, 0.0000000000000000000 ) ) ;
#301 = DIRECTION ( 'NONE',  ( 1.000000000000000000, 0.0000000000000000000, 0.0000000000000000000 ) ) ;
#302 = LINE ( 'NONE', #355, #180 ) ;
#303 = PLANE ( 'NONE',  #226 ) ;
#304 = EDGE_CURVE ( 'NONE', #209, #21, #58, .T. ) ;
#305 = VERTEX_POINT ( 'NONE', #10 ) ;
#306 = DIRECTION ( 'NONE',  ( -1.000000000000000000, 0.0000000000000000000, 0.0000000000000000000 ) ) ;
#307 = CARTESIAN_POINT ( 'NONE',  ( 15.00000000000000000, 49.99999999999999300, 15.00000000000000000 ) ) ;
#308 = DIRECTION ( 'NONE',  ( -0.0000000000000000000, -1.000000000000000000, -0.0000000000000000000 ) ) ;
#309 = SURFACE_STYLE_FILL_AREA ( #284 ) ;
#310 = CARTESIAN_POINT ( 'NONE',  ( 30.00000000000000000, 49.99999999999999300, 15.00000000000000000 ) ) ;
#311 = ORIENTED_EDGE ( 'NONE', *, *, #154, .T. ) ;
#312 = EDGE_CURVE ( 'NONE', #335, #345, #228, .T. ) ;
#313 = SURFACE_SIDE_STYLE ('',( #86 ) ) ;
#314 = ORIENTED_EDGE ( 'NONE', *, *, #14, .T. ) ;
#315 = DIRECTION ( 'NONE',  ( 0.0000000000000000000, 0.0000000000000000000, 1.000000000000000000 ) ) ;
#316 = CIRCLE ( 'NONE', #336, 4.249999999999996400 ) ;
#317 = VECTOR ( 'NONE', #326, 1000.000000000000000 ) ;
#318 = VERTEX_POINT ( 'NONE', #310 ) ;
#319 = VECTOR ( 'NONE', #308, 1000.000000000000000 ) ;
#320 = LINE ( 'NONE', #84, #248 ) ;
#321 = ORIENTED_EDGE ( 'NONE', *, *, #78, .T. ) ;
#322 = AXIS2_PLACEMENT_3D ( 'NONE', #324, #187, #128 ) ;
#323 = ORIENTED_EDGE ( 'NONE', *, *, #66, .F. ) ;
#324 = CARTESIAN_POINT ( 'NONE',  ( 15.00000000000000400, -13.22875655532295300, 15.00000000000000000 ) ) ;
#325 =( LENGTH_UNIT ( ) NAMED_UNIT ( * ) SI_UNIT ( .MILLI., .METRE. ) );
#326 = DIRECTION ( 'NONE',  ( -0.0000000000000000000, -0.0000000000000000000, 1.000000000000000000 ) ) ;
#327 = LINE ( 'NONE', #36, #357 ) ;
#328 = CARTESIAN_POINT ( 'NONE',  ( 0.0000000000000000000, 49.99999999999999300, 0.0000000000000000000 ) ) ;
#329 = DIRECTION ( 'NONE',  ( 1.000000000000000000, 0.0000000000000000000, 0.0000000000000000000 ) ) ;
#330 =( NAMED_UNIT ( * ) SI_UNIT ( $, .STERADIAN. ) SOLID_ANGLE_UNIT ( ) );
#331 = EDGE_LOOP ( 'NONE', ( #166, #298, #375, #262 ) ) ;
#332 = SURFACE_SIDE_STYLE ('',( #309 ) ) ;
#333 = EDGE_CURVE ( 'NONE', #345, #256, #46, .T. ) ;
#334 =( NAMED_UNIT ( * ) SI_UNIT ( $, .STERADIAN. ) SOLID_ANGLE_UNIT ( ) );
#335 = VERTEX_POINT ( 'NONE', #131 ) ;
#336 = AXIS2_PLACEMENT_3D ( 'NONE', #29, #30, #295 ) ;
#337 = ORIENTED_EDGE ( 'NONE', *, *, #78, .F. ) ;
#338 = EDGE_LOOP ( 'NONE', ( #337, #159, #263, #240 ) ) ;
#339 = DIRECTION ( 'NONE',  ( -1.000000000000000000, 0.0000000000000000000, 0.0000000000000000000 ) ) ;
#340 = PRESENTATION_STYLE_ASSIGNMENT (( #63 ) ) ;
#341 = CIRCLE ( 'NONE', #5, 4.249999999999996400 ) ;
#342 = UNCERTAINTY_MEASURE_WITH_UNIT (LENGTH_MEASURE( 1.000000000000000100E-005 ), #17, 'distance_accuracy_value', 'NONE');
#343 = DIRECTION ( 'NONE',  ( -0.0000000000000000000, -0.0000000000000000000, -1.000000000000000000 ) ) ;
#344 = DIRECTION ( 'NONE',  ( 0.0000000000000000000, 0.0000000000000000000, -1.000000000000000000 ) ) ;
#345 = VERTEX_POINT ( 'NONE', #247 ) ;
#346 = PLANE ( 'NONE',  #322 ) ;
#347 = CARTESIAN_POINT ( 'NONE',  ( 0.0000000000000000000, 60.00000000000000000, 15.00000000000000000 ) ) ;
#348 = CARTESIAN_POINT ( 'NONE',  ( 10.00000000000000000, 49.99999999999999300, 0.0000000000000000000 ) ) ;
#349 = EDGE_CURVE ( 'NONE', #72, #318, #290, .T. ) ;
#350 = VECTOR ( 'NONE', #160, 1000.000000000000000 ) ;
#351 = EDGE_LOOP ( 'NONE', ( #87, #205, #19, #111, #254, #323 ) ) ;
#352 = CARTESIAN_POINT ( 'NONE',  ( 0.0000000000000000000, 60.00000000000000000, 0.0000000000000000000 ) ) ;
#353 = FILL_AREA_STYLE_COLOUR ( '', #107 ) ;
#354 = DIRECTION ( 'NONE',  ( -0.0000000000000000000, -0.0000000000000000000, 1.000000000000000000 ) ) ;
#355 = CARTESIAN_POINT ( 'NONE',  ( 0.0000000000000000000, 0.0000000000000000000, 15.00000000000000000 ) ) ;
#356 = AXIS2_PLACEMENT_3D ( 'NONE', #291, #343, #27 ) ;
#357 = VECTOR ( 'NONE', #271, 1000.000000000000000 ) ;
#358 = EDGE_LOOP ( 'NONE', ( #314, #321, #41, #188, #287, #311 ) ) ;
#359 = CARTESIAN_POINT ( 'NONE',  ( 15.00000000000000400, -13.22875655532295300, 15.00000000000000000 ) ) ;
#360 = DIRECTION ( 'NONE',  ( -1.000000000000000000, -1.156482317317871500E-016, 0.0000000000000000000 ) ) ;
#361 = UNCERTAINTY_MEASURE_WITH_UNIT (LENGTH_MEASURE( 1.000000000000000100E-005 ), #43, 'distance_accuracy_value', 'NONE');
#362 = ADVANCED_FACE ( 'NONE', ( #151 ), #82, .F. ) ;
#363 = APPLICATION_CONTEXT ( 'automotive_design' ) ;
#364 = VERTEX_POINT ( 'NONE', #221 ) ;
#365 = ADVANCED_FACE ( 'NONE', ( #197 ), #170, .F. ) ;
#366 = SURFACE_SIDE_STYLE ('',( #278 ) ) ;
#367 = LINE ( 'NONE', #157, #350 ) ;
#368 = ORIENTED_EDGE ( 'NONE', *, *, #168, .T. ) ;
#369 = MANIFOLD_SOLID_BREP ( 'Congé1', #148 ) ;
#370 = LINE ( 'NONE', #4, #50 ) ;
#371 = ORIENTED_EDGE ( 'NONE', *, *, #77, .F. ) ;
#372 = STYLED_ITEM ( 'NONE', ( #126 ), #362 ) ;
#373 = UNCERTAINTY_MEASURE_WITH_UNIT (LENGTH_MEASURE( 1.000000000000000100E-005 ), #176, 'distance_accuracy_value', 'NONE');
#374 = FACE_OUTER_BOUND ( 'NONE', #115, .T. ) ;
#375 = ORIENTED_EDGE ( 'NONE', *, *, #333, .T. ) ;
#376 = DIRECTION ( 'NONE',  ( -0.0000000000000000000, -0.0000000000000000000, 1.000000000000000000 ) ) ;
#377 = MECHANICAL_DESIGN_GEOMETRIC_PRESENTATION_REPRESENTATION (  '', ( #372 ), #114 ) ;
#378 =( NAMED_UNIT ( * ) SI_UNIT ( $, .STERADIAN. ) SOLID_ANGLE_UNIT ( ) );
ENDSEC;
END-ISO-10303-21;
