ISO-10303-21;
HEADER;
/* Generated by software containing ST-Developer
 * from STEP Tools, Inc. (www.steptools.com) 
 */

FILE_DESCRIPTION(
/* description */ (''),
/* implementation_level */ '2;1');

FILE_NAME(
/* name */ 'support_canne_bras_gauche v1.step',
/* time_stamp */ '2024-02-18T11:30:21+01:00',
/* author */ (''),
/* organization */ (''),
/* preprocessor_version */ 'ST-DEVELOPER v20',
/* originating_system */ 'Autodesk Translation Framework v12.14.0.127',

/* authorisation */ '');

FILE_SCHEMA (('AUTOMOTIVE_DESIGN { 1 0 10303 214 3 1 1 }'));
ENDSEC;

DATA;
#10=MECHANICAL_DESIGN_GEOMETRIC_PRESENTATION_REPRESENTATION('',(#13),#215);
#11=SHAPE_REPRESENTATION_RELATIONSHIP('SRR','None',#222,#12);
#12=ADVANCED_BREP_SHAPE_REPRESENTATION('',(#14),#214);
#13=STYLED_ITEM('',(#232),#14);
#14=MANIFOLD_SOLID_BREP('Corps1',#115);
#15=LINE('',#191,#19);
#16=LINE('',#199,#20);
#17=LINE('',#206,#21);
#18=LINE('',#211,#22);
#19=VECTOR('',#155,4.);
#20=VECTOR('',#166,6.25);
#21=VECTOR('',#175,19.);
#22=VECTOR('',#182,7.);
#23=CYLINDRICAL_SURFACE('',#132,4.);
#24=CYLINDRICAL_SURFACE('',#136,6.25);
#25=CYLINDRICAL_SURFACE('',#140,19.);
#26=CYLINDRICAL_SURFACE('',#144,7.);
#27=FACE_BOUND('',#40,.T.);
#28=FACE_BOUND('',#43,.T.);
#29=FACE_BOUND('',#46,.T.);
#30=FACE_BOUND('',#49,.T.);
#31=FACE_OUTER_BOUND('',#39,.T.);
#32=FACE_OUTER_BOUND('',#41,.T.);
#33=FACE_OUTER_BOUND('',#42,.T.);
#34=FACE_OUTER_BOUND('',#44,.T.);
#35=FACE_OUTER_BOUND('',#45,.T.);
#36=FACE_OUTER_BOUND('',#47,.T.);
#37=FACE_OUTER_BOUND('',#48,.T.);
#38=FACE_OUTER_BOUND('',#50,.T.);
#39=EDGE_LOOP('',(#79));
#40=EDGE_LOOP('',(#80));
#41=EDGE_LOOP('',(#81,#82,#83,#84));
#42=EDGE_LOOP('',(#85));
#43=EDGE_LOOP('',(#86));
#44=EDGE_LOOP('',(#87,#88,#89,#90));
#45=EDGE_LOOP('',(#91));
#46=EDGE_LOOP('',(#92));
#47=EDGE_LOOP('',(#93,#94,#95,#96));
#48=EDGE_LOOP('',(#97));
#49=EDGE_LOOP('',(#98));
#50=EDGE_LOOP('',(#99,#100,#101,#102));
#51=CIRCLE('',#130,7.);
#52=CIRCLE('',#131,4.);
#53=CIRCLE('',#133,4.);
#54=CIRCLE('',#135,6.25);
#55=CIRCLE('',#137,6.25);
#56=CIRCLE('',#139,19.);
#57=CIRCLE('',#141,19.);
#58=CIRCLE('',#143,7.);
#59=VERTEX_POINT('',#185);
#60=VERTEX_POINT('',#187);
#61=VERTEX_POINT('',#190);
#62=VERTEX_POINT('',#194);
#63=VERTEX_POINT('',#197);
#64=VERTEX_POINT('',#201);
#65=VERTEX_POINT('',#204);
#66=VERTEX_POINT('',#208);
#67=EDGE_CURVE('',#59,#59,#51,.T.);
#68=EDGE_CURVE('',#60,#60,#52,.T.);
#69=EDGE_CURVE('',#60,#61,#15,.T.);
#70=EDGE_CURVE('',#61,#61,#53,.T.);
#71=EDGE_CURVE('',#62,#62,#54,.T.);
#72=EDGE_CURVE('',#63,#63,#55,.T.);
#73=EDGE_CURVE('',#63,#62,#16,.T.);
#74=EDGE_CURVE('',#64,#64,#56,.T.);
#75=EDGE_CURVE('',#65,#65,#57,.T.);
#76=EDGE_CURVE('',#65,#64,#17,.T.);
#77=EDGE_CURVE('',#66,#66,#58,.T.);
#78=EDGE_CURVE('',#59,#66,#18,.T.);
#79=ORIENTED_EDGE('',*,*,#67,.T.);
#80=ORIENTED_EDGE('',*,*,#68,.F.);
#81=ORIENTED_EDGE('',*,*,#68,.T.);
#82=ORIENTED_EDGE('',*,*,#69,.T.);
#83=ORIENTED_EDGE('',*,*,#70,.F.);
#84=ORIENTED_EDGE('',*,*,#69,.F.);
#85=ORIENTED_EDGE('',*,*,#71,.F.);
#86=ORIENTED_EDGE('',*,*,#70,.T.);
#87=ORIENTED_EDGE('',*,*,#72,.F.);
#88=ORIENTED_EDGE('',*,*,#73,.T.);
#89=ORIENTED_EDGE('',*,*,#71,.T.);
#90=ORIENTED_EDGE('',*,*,#73,.F.);
#91=ORIENTED_EDGE('',*,*,#74,.F.);
#92=ORIENTED_EDGE('',*,*,#72,.T.);
#93=ORIENTED_EDGE('',*,*,#75,.F.);
#94=ORIENTED_EDGE('',*,*,#76,.T.);
#95=ORIENTED_EDGE('',*,*,#74,.T.);
#96=ORIENTED_EDGE('',*,*,#76,.F.);
#97=ORIENTED_EDGE('',*,*,#75,.T.);
#98=ORIENTED_EDGE('',*,*,#77,.F.);
#99=ORIENTED_EDGE('',*,*,#67,.F.);
#100=ORIENTED_EDGE('',*,*,#78,.T.);
#101=ORIENTED_EDGE('',*,*,#77,.T.);
#102=ORIENTED_EDGE('',*,*,#78,.F.);
#103=PLANE('',#129);
#104=PLANE('',#134);
#105=PLANE('',#138);
#106=PLANE('',#142);
#107=ADVANCED_FACE('',(#31,#27),#103,.T.);
#108=ADVANCED_FACE('',(#32),#23,.F.);
#109=ADVANCED_FACE('',(#33,#28),#104,.T.);
#110=ADVANCED_FACE('',(#34),#24,.T.);
#111=ADVANCED_FACE('',(#35,#29),#105,.T.);
#112=ADVANCED_FACE('',(#36),#25,.T.);
#113=ADVANCED_FACE('',(#37,#30),#106,.T.);
#114=ADVANCED_FACE('',(#38),#26,.T.);
#115=CLOSED_SHELL('',(#107,#108,#109,#110,#111,#112,#113,#114));
#116=DERIVED_UNIT_ELEMENT(#118,1.);
#117=DERIVED_UNIT_ELEMENT(#217,-3.);
#118=(
MASS_UNIT()
NAMED_UNIT(*)
SI_UNIT(.KILO.,.GRAM.)
);
#119=DERIVED_UNIT((#116,#117));
#120=MEASURE_REPRESENTATION_ITEM('density measure',
POSITIVE_RATIO_MEASURE(7850.),#119);
#121=PROPERTY_DEFINITION_REPRESENTATION(#126,#123);
#122=PROPERTY_DEFINITION_REPRESENTATION(#127,#124);
#123=REPRESENTATION('material name',(#125),#214);
#124=REPRESENTATION('density',(#120),#214);
#125=DESCRIPTIVE_REPRESENTATION_ITEM('Acier','Acier');
#126=PROPERTY_DEFINITION('material property','material name',#224);
#127=PROPERTY_DEFINITION('material property','density of part',#224);
#128=AXIS2_PLACEMENT_3D('',#183,#145,#146);
#129=AXIS2_PLACEMENT_3D('',#184,#147,#148);
#130=AXIS2_PLACEMENT_3D('',#186,#149,#150);
#131=AXIS2_PLACEMENT_3D('',#188,#151,#152);
#132=AXIS2_PLACEMENT_3D('',#189,#153,#154);
#133=AXIS2_PLACEMENT_3D('',#192,#156,#157);
#134=AXIS2_PLACEMENT_3D('',#193,#158,#159);
#135=AXIS2_PLACEMENT_3D('',#195,#160,#161);
#136=AXIS2_PLACEMENT_3D('',#196,#162,#163);
#137=AXIS2_PLACEMENT_3D('',#198,#164,#165);
#138=AXIS2_PLACEMENT_3D('',#200,#167,#168);
#139=AXIS2_PLACEMENT_3D('',#202,#169,#170);
#140=AXIS2_PLACEMENT_3D('',#203,#171,#172);
#141=AXIS2_PLACEMENT_3D('',#205,#173,#174);
#142=AXIS2_PLACEMENT_3D('',#207,#176,#177);
#143=AXIS2_PLACEMENT_3D('',#209,#178,#179);
#144=AXIS2_PLACEMENT_3D('',#210,#180,#181);
#145=DIRECTION('axis',(0.,0.,1.));
#146=DIRECTION('refdir',(1.,0.,0.));
#147=DIRECTION('center_axis',(0.,1.,0.));
#148=DIRECTION('ref_axis',(0.,0.,1.));
#149=DIRECTION('center_axis',(0.,1.,0.));
#150=DIRECTION('ref_axis',(1.,0.,0.));
#151=DIRECTION('center_axis',(0.,1.,0.));
#152=DIRECTION('ref_axis',(1.,0.,0.));
#153=DIRECTION('center_axis',(0.,1.,0.));
#154=DIRECTION('ref_axis',(0.,0.,1.));
#155=DIRECTION('',(0.,-1.,0.));
#156=DIRECTION('center_axis',(0.,1.,0.));
#157=DIRECTION('ref_axis',(1.,0.,0.));
#158=DIRECTION('center_axis',(0.,-1.,0.));
#159=DIRECTION('ref_axis',(0.,0.,-1.));
#160=DIRECTION('center_axis',(0.,1.,0.));
#161=DIRECTION('ref_axis',(1.,0.,0.));
#162=DIRECTION('center_axis',(0.,1.,0.));
#163=DIRECTION('ref_axis',(0.,0.,1.));
#164=DIRECTION('center_axis',(0.,1.,0.));
#165=DIRECTION('ref_axis',(1.,0.,0.));
#166=DIRECTION('',(0.,-1.,0.));
#167=DIRECTION('center_axis',(0.,-1.,0.));
#168=DIRECTION('ref_axis',(0.,0.,-1.));
#169=DIRECTION('center_axis',(0.,1.,0.));
#170=DIRECTION('ref_axis',(1.,0.,0.));
#171=DIRECTION('center_axis',(0.,1.,0.));
#172=DIRECTION('ref_axis',(0.,0.,1.));
#173=DIRECTION('center_axis',(0.,1.,0.));
#174=DIRECTION('ref_axis',(1.,0.,0.));
#175=DIRECTION('',(0.,-1.,0.));
#176=DIRECTION('center_axis',(0.,1.,0.));
#177=DIRECTION('ref_axis',(0.,0.,1.));
#178=DIRECTION('center_axis',(0.,1.,0.));
#179=DIRECTION('ref_axis',(1.,0.,0.));
#180=DIRECTION('center_axis',(0.,1.,0.));
#181=DIRECTION('ref_axis',(0.,0.,1.));
#182=DIRECTION('',(0.,-1.,0.));
#183=CARTESIAN_POINT('',(0.,0.,0.));
#184=CARTESIAN_POINT('Origin',(0.,24.7,4.));
#185=CARTESIAN_POINT('',(-8.57252759403147E-16,24.7,-7.));
#186=CARTESIAN_POINT('Origin',(0.,24.7,0.));
#187=CARTESIAN_POINT('',(-4.89858719658941E-16,24.7,-4.));
#188=CARTESIAN_POINT('Origin',(0.,24.7,0.));
#189=CARTESIAN_POINT('Origin',(0.,12.35,0.));
#190=CARTESIAN_POINT('',(-4.89858719658941E-16,0.,-4.));
#191=CARTESIAN_POINT('',(-4.89858719658941E-16,12.35,-4.));
#192=CARTESIAN_POINT('Origin',(0.,0.,0.));
#193=CARTESIAN_POINT('Origin',(0.,0.,6.25));
#194=CARTESIAN_POINT('',(-7.65404249467096E-16,0.,-6.25));
#195=CARTESIAN_POINT('Origin',(0.,0.,0.));
#196=CARTESIAN_POINT('Origin',(0.,9.,0.));
#197=CARTESIAN_POINT('',(-7.65404249467096E-16,18.,-6.25));
#198=CARTESIAN_POINT('Origin',(0.,18.,0.));
#199=CARTESIAN_POINT('',(-7.65404249467096E-16,9.,-6.25));
#200=CARTESIAN_POINT('Origin',(0.,18.,19.));
#201=CARTESIAN_POINT('',(-2.32682891837997E-15,18.,-19.));
#202=CARTESIAN_POINT('Origin',(0.,18.,0.));
#203=CARTESIAN_POINT('Origin',(0.,19.35,0.));
#204=CARTESIAN_POINT('',(-2.32682891837997E-15,20.7,-19.));
#205=CARTESIAN_POINT('Origin',(0.,20.7,0.));
#206=CARTESIAN_POINT('',(-2.32682891837997E-15,19.35,-19.));
#207=CARTESIAN_POINT('Origin',(0.,20.7,7.));
#208=CARTESIAN_POINT('',(-8.57252759403147E-16,20.7,-7.));
#209=CARTESIAN_POINT('Origin',(0.,20.7,0.));
#210=CARTESIAN_POINT('Origin',(0.,22.7,0.));
#211=CARTESIAN_POINT('',(-8.57252759403147E-16,22.7,-7.));
#212=UNCERTAINTY_MEASURE_WITH_UNIT(LENGTH_MEASURE(0.01),#216,
'DISTANCE_ACCURACY_VALUE',
'Maximum model space distance between geometric entities at asserted c
onnectivities');
#213=UNCERTAINTY_MEASURE_WITH_UNIT(LENGTH_MEASURE(0.01),#216,
'DISTANCE_ACCURACY_VALUE',
'Maximum model space distance between geometric entities at asserted c
onnectivities');
#214=(
GEOMETRIC_REPRESENTATION_CONTEXT(3)
GLOBAL_UNCERTAINTY_ASSIGNED_CONTEXT((#212))
GLOBAL_UNIT_ASSIGNED_CONTEXT((#216,#218,#219))
REPRESENTATION_CONTEXT('','3D')
);
#215=(
GEOMETRIC_REPRESENTATION_CONTEXT(3)
GLOBAL_UNCERTAINTY_ASSIGNED_CONTEXT((#213))
GLOBAL_UNIT_ASSIGNED_CONTEXT((#216,#218,#219))
REPRESENTATION_CONTEXT('','3D')
);
#216=(
LENGTH_UNIT()
NAMED_UNIT(*)
SI_UNIT(.MILLI.,.METRE.)
);
#217=(
LENGTH_UNIT()
NAMED_UNIT(*)
SI_UNIT($,.METRE.)
);
#218=(
NAMED_UNIT(*)
PLANE_ANGLE_UNIT()
SI_UNIT($,.RADIAN.)
);
#219=(
NAMED_UNIT(*)
SI_UNIT($,.STERADIAN.)
SOLID_ANGLE_UNIT()
);
#220=SHAPE_DEFINITION_REPRESENTATION(#221,#222);
#221=PRODUCT_DEFINITION_SHAPE('',$,#224);
#222=SHAPE_REPRESENTATION('',(#128),#214);
#223=PRODUCT_DEFINITION_CONTEXT('part definition',#228,'design');
#224=PRODUCT_DEFINITION('support_canne_bras_gauche',
'support_canne_bras_gauche v1',#225,#223);
#225=PRODUCT_DEFINITION_FORMATION('',$,#230);
#226=PRODUCT_RELATED_PRODUCT_CATEGORY('support_canne_bras_gauche v1',
'support_canne_bras_gauche v1',(#230));
#227=APPLICATION_PROTOCOL_DEFINITION('international standard',
'automotive_design',2009,#228);
#228=APPLICATION_CONTEXT(
'Core Data for Automotive Mechanical Design Process');
#229=PRODUCT_CONTEXT('part definition',#228,'mechanical');
#230=PRODUCT('support_canne_bras_gauche','support_canne_bras_gauche v1',
$,(#229));
#231=PRESENTATION_STYLE_ASSIGNMENT((#233));
#232=PRESENTATION_STYLE_ASSIGNMENT((#234));
#233=SURFACE_STYLE_USAGE(.BOTH.,#235);
#234=SURFACE_STYLE_USAGE(.BOTH.,#236);
#235=SURFACE_SIDE_STYLE('',(#237));
#236=SURFACE_SIDE_STYLE('',(#238));
#237=SURFACE_STYLE_FILL_AREA(#239);
#238=SURFACE_STYLE_FILL_AREA(#240);
#239=FILL_AREA_STYLE('Acier - Satin\X\E9',(#241));
#240=FILL_AREA_STYLE('Acier inoxydable - Satin\X\E9',(#242));
#241=FILL_AREA_STYLE_COLOUR('Acier - Satin\X\E9',#243);
#242=FILL_AREA_STYLE_COLOUR('Acier inoxydable - Satin\X\E9',#244);
#243=COLOUR_RGB('Acier - Satin\X\E9',0.627450980392157,0.627450980392157,
0.627450980392157);
#244=COLOUR_RGB('Acier inoxydable - Satin\X\E9',0.796078431372549,0.796078431372549,
0.796078431372549);
ENDSEC;
END-ISO-10303-21;
