ISO-10303-21;
HEADER;
FILE_DESCRIPTION(('Creo Elements/Direct Modeling STEP Export'),'2;1');
FILE_NAME('AXE COFFRE.stp','2024-02-26T 8:40:14',(''),(''),
'Creo Elements/Direct Modeling STEP processor for AP214 (Solid Model)',
'Creo Elements/Direct Modeling 20.5  09-Apr-2022 (C) Parametric Technolo
gy GmbH','');
FILE_SCHEMA(('AUTOMOTIVE_DESIGN { 1 0 10303 214 1 1 1 1 }'));
ENDSEC;
DATA;
#10=CARTESIAN_POINT('',(74.,5.,0.));
#20=DIRECTION('',(1.,0.,0.));
#30=DIRECTION('',(0.,-1.,0.));
#40=AXIS2_PLACEMENT_3D('',#10,#20,#30);
#50=PLANE('',#40);
#60=CARTESIAN_POINT('',(74.,0.,0.));
#70=DIRECTION('',(1.,0.,0.));
#80=DIRECTION('',(0.,1.,0.));
#90=AXIS2_PLACEMENT_3D('',#60,#70,#80);
#100=CIRCLE('',#90,10.);
#110=CARTESIAN_POINT('',(74.,10.,-1.22464679914735E-15));
#120=VERTEX_POINT('',#110);
#130=CARTESIAN_POINT('',(74.,-10.,0.));
#140=VERTEX_POINT('',#130);
#150=EDGE_CURVE('',#120,#140,#100,.T.);
#160=ORIENTED_EDGE('',*,*,#150,.T.);
#170=EDGE_CURVE('',#140,#120,#100,.T.);
#180=ORIENTED_EDGE('',*,*,#170,.T.);
#190=EDGE_LOOP('',(#180,#160));
#200=FACE_OUTER_BOUND('',#190,.T.);
#210=ADVANCED_FACE('',(#200),#50,.T.);
#220=CARTESIAN_POINT('',(73.,0.,0.));
#230=DIRECTION('',(1.,0.,0.));
#240=DIRECTION('',(0.,-1.,0.));
#250=AXIS2_PLACEMENT_3D('',#220,#230,#240);
#260=CYLINDRICAL_SURFACE('',#250,10.);
#270=CARTESIAN_POINT('',(73.,-10.,0.));
#280=DIRECTION('',(1.,0.,0.));
#290=VECTOR('',#280,1.);
#300=LINE('',#270,#290);
#310=CARTESIAN_POINT('',(72.,-10.,0.));
#320=VERTEX_POINT('',#310);
#330=EDGE_CURVE('',#320,#140,#300,.T.);
#340=ORIENTED_EDGE('',*,*,#330,.F.);
#350=ORIENTED_EDGE('',*,*,#170,.F.);
#360=CARTESIAN_POINT('',(73.,10.,-1.22464679914735E-15));
#370=DIRECTION('',(1.,0.,0.));
#380=VECTOR('',#370,1.);
#390=LINE('',#360,#380);
#400=CARTESIAN_POINT('',(72.,10.,-1.22464679914735E-15));
#410=VERTEX_POINT('',#400);
#420=EDGE_CURVE('',#410,#120,#390,.T.);
#430=ORIENTED_EDGE('',*,*,#420,.T.);
#440=CARTESIAN_POINT('',(72.,0.,0.));
#450=DIRECTION('',(1.,0.,0.));
#460=DIRECTION('',(0.,1.,0.));
#470=AXIS2_PLACEMENT_3D('',#440,#450,#460);
#480=CIRCLE('',#470,10.);
#490=EDGE_CURVE('',#320,#410,#480,.T.);
#500=ORIENTED_EDGE('',*,*,#490,.T.);
#510=EDGE_LOOP('',(#500,#430,#350,#340));
#520=FACE_OUTER_BOUND('',#510,.T.);
#530=ADVANCED_FACE('',(#520),#260,.T.);
#540=CARTESIAN_POINT('',(72.,8.,0.));
#550=DIRECTION('',(1.,0.,0.));
#560=DIRECTION('',(0.,-1.,0.));
#570=AXIS2_PLACEMENT_3D('',#540,#550,#560);
#580=PLANE('',#570);
#590=CARTESIAN_POINT('',(72.,0.,0.));
#600=DIRECTION('',(1.,0.,0.));
#610=DIRECTION('',(0.,1.,0.));
#620=AXIS2_PLACEMENT_3D('',#590,#600,#610);
#630=CIRCLE('',#620,6.);
#640=CARTESIAN_POINT('',(72.,6.,0.));
#650=VERTEX_POINT('',#640);
#660=CARTESIAN_POINT('',(72.,-6.,-7.34788079488412E-16));
#670=VERTEX_POINT('',#660);
#680=EDGE_CURVE('',#650,#670,#630,.T.);
#690=ORIENTED_EDGE('',*,*,#680,.T.);
#700=EDGE_CURVE('',#670,#650,#630,.T.);
#710=ORIENTED_EDGE('',*,*,#700,.T.);
#720=EDGE_LOOP('',(#710,#690));
#730=FACE_BOUND('',#720,.T.);
#740=EDGE_CURVE('',#410,#320,#480,.T.);
#750=ORIENTED_EDGE('',*,*,#740,.F.);
#760=ORIENTED_EDGE('',*,*,#490,.F.);
#770=EDGE_LOOP('',(#760,#750));
#780=FACE_OUTER_BOUND('',#770,.T.);
#790=ADVANCED_FACE('',(#730,#780),#580,.F.);
#800=CARTESIAN_POINT('',(33.,0.,0.));
#810=DIRECTION('',(-1.,0.,0.));
#820=DIRECTION('',(0.,1.,0.));
#830=AXIS2_PLACEMENT_3D('',#800,#810,#820);
#840=CYLINDRICAL_SURFACE('',#830,6.);
#850=CARTESIAN_POINT('',(33.,-6.,-7.34788079488412E-16));
#860=DIRECTION('',(-1.,0.,0.));
#870=VECTOR('',#860,1.);
#880=LINE('',#850,#870);
#890=CARTESIAN_POINT('',(0.,-6.,-7.34788079488412E-16));
#900=VERTEX_POINT('',#890);
#910=EDGE_CURVE('',#670,#900,#880,.T.);
#920=ORIENTED_EDGE('',*,*,#910,.T.);
#930=ORIENTED_EDGE('',*,*,#700,.F.);
#940=CARTESIAN_POINT('',(33.,6.,0.));
#950=DIRECTION('',(-1.,0.,0.));
#960=VECTOR('',#950,1.);
#970=LINE('',#940,#960);
#980=CARTESIAN_POINT('',(0.,6.,0.));
#990=VERTEX_POINT('',#980);
#1000=EDGE_CURVE('',#650,#990,#970,.T.);
#1010=ORIENTED_EDGE('',*,*,#1000,.F.);
#1020=CARTESIAN_POINT('',(0.,0.,0.));
#1030=DIRECTION('',(-1.,0.,0.));
#1040=DIRECTION('',(0.,1.,0.));
#1050=AXIS2_PLACEMENT_3D('',#1020,#1030,#1040);
#1060=CIRCLE('',#1050,6.);
#1070=CARTESIAN_POINT('',(0.,3.67394039744206E-16,-6.));
#1080=VERTEX_POINT('',#1070);
#1090=EDGE_CURVE('',#990,#1080,#1060,.T.);
#1100=ORIENTED_EDGE('',*,*,#1090,.F.);
#1110=EDGE_CURVE('',#1080,#900,#1060,.T.);
#1120=ORIENTED_EDGE('',*,*,#1110,.F.);
#1130=EDGE_LOOP('',(#1120,#1100,#1010,#930,#920));
#1140=FACE_OUTER_BOUND('',#1130,.T.);
#1150=ADVANCED_FACE('',(#1140),#840,.T.);
#1160=CARTESIAN_POINT('',(-6.,3.,0.));
#1170=DIRECTION('',(-1.,0.,0.));
#1180=DIRECTION('',(0.,1.,0.));
#1190=AXIS2_PLACEMENT_3D('',#1160,#1170,#1180);
#1200=PLANE('',#1190);
#1210=CARTESIAN_POINT('',(-6.,6.,0.));
#1220=DIRECTION('',(0.,0.707106781186548,-0.707106781186548));
#1230=VECTOR('',#1220,1.);
#1240=LINE('',#1210,#1230);
#1250=CARTESIAN_POINT('',(-6.,-1.10218211923262E-15,6.));
#1260=VERTEX_POINT('',#1250);
#1270=CARTESIAN_POINT('',(-6.,6.,0.));
#1280=VERTEX_POINT('',#1270);
#1290=EDGE_CURVE('',#1260,#1280,#1240,.T.);
#1300=ORIENTED_EDGE('',*,*,#1290,.T.);
#1310=CARTESIAN_POINT('',(-6.,-6.,0.));
#1320=DIRECTION('',(0.,0.707106781186548,0.707106781186548));
#1330=VECTOR('',#1320,1.);
#1340=LINE('',#1310,#1330);
#1350=CARTESIAN_POINT('',(-6.,-6.,-7.34788079488412E-16));
#1360=VERTEX_POINT('',#1350);
#1370=EDGE_CURVE('',#1360,#1260,#1340,.T.);
#1380=ORIENTED_EDGE('',*,*,#1370,.T.);
#1390=CARTESIAN_POINT('',(-6.,-6.,0.));
#1400=DIRECTION('',(0.,-0.707106781186547,0.707106781186548));
#1410=VECTOR('',#1400,1.);
#1420=LINE('',#1390,#1410);
#1430=CARTESIAN_POINT('',(-6.,3.67394039744206E-16,-6.));
#1440=VERTEX_POINT('',#1430);
#1450=EDGE_CURVE('',#1440,#1360,#1420,.T.);
#1460=ORIENTED_EDGE('',*,*,#1450,.T.);
#1470=CARTESIAN_POINT('',(-6.,6.,0.));
#1480=DIRECTION('',(0.,-0.707106781186548,-0.707106781186548));
#1490=VECTOR('',#1480,1.);
#1500=LINE('',#1470,#1490);
#1510=EDGE_CURVE('',#1280,#1440,#1500,.T.);
#1520=ORIENTED_EDGE('',*,*,#1510,.T.);
#1530=EDGE_LOOP('',(#1520,#1460,#1380,#1300));
#1540=FACE_OUTER_BOUND('',#1530,.T.);
#1550=CARTESIAN_POINT('',(-6.,0.,0.));
#1560=DIRECTION('',(-1.,0.,0.));
#1570=DIRECTION('',(0.,1.,0.));
#1580=AXIS2_PLACEMENT_3D('',#1550,#1560,#1570);
#1590=CIRCLE('',#1580,2.5);
#1600=CARTESIAN_POINT('',(-6.,2.5,0.));
#1610=VERTEX_POINT('',#1600);
#1620=CARTESIAN_POINT('',(-6.,-2.5,-3.06161699786838E-16));
#1630=VERTEX_POINT('',#1620);
#1640=EDGE_CURVE('',#1610,#1630,#1590,.T.);
#1650=ORIENTED_EDGE('',*,*,#1640,.F.);
#1660=EDGE_CURVE('',#1630,#1610,#1590,.T.);
#1670=ORIENTED_EDGE('',*,*,#1660,.F.);
#1680=EDGE_LOOP('',(#1670,#1650));
#1690=FACE_BOUND('',#1680,.T.);
#1700=ADVANCED_FACE('',(#1540,#1690),#1200,.T.);
#1710=CARTESIAN_POINT('',(-6.,0.,0.));
#1720=DIRECTION('',(-1.,0.,0.));
#1730=DIRECTION('',(0.,1.,0.));
#1740=AXIS2_PLACEMENT_3D('',#1710,#1720,#1730);
#1750=CYLINDRICAL_SURFACE('',#1740,2.1);
#1760=CARTESIAN_POINT('',(-6.,-2.1,-2.57175827820944E-16));
#1770=DIRECTION('',(-1.,0.,0.));
#1780=VECTOR('',#1770,1.);
#1790=LINE('',#1760,#1780);
#1800=CARTESIAN_POINT('',(4.,-2.1,-2.57175827820944E-16));
#1810=VERTEX_POINT('',#1800);
#1820=CARTESIAN_POINT('',(-5.6,-2.1,-2.57175827820944E-16));
#1830=VERTEX_POINT('',#1820);
#1840=EDGE_CURVE('',#1810,#1830,#1790,.T.);
#1850=ORIENTED_EDGE('',*,*,#1840,.T.);
#1860=CARTESIAN_POINT('',(4.,0.,0.));
#1870=DIRECTION('',(-1.,0.,0.));
#1880=DIRECTION('',(0.,1.,0.));
#1890=AXIS2_PLACEMENT_3D('',#1860,#1870,#1880);
#1900=CIRCLE('',#1890,2.1);
#1910=CARTESIAN_POINT('',(4.,2.1,0.));
#1920=VERTEX_POINT('',#1910);
#1930=EDGE_CURVE('',#1810,#1920,#1900,.T.);
#1940=ORIENTED_EDGE('',*,*,#1930,.F.);
#1950=CARTESIAN_POINT('',(-6.,2.1,0.));
#1960=DIRECTION('',(-1.,0.,0.));
#1970=VECTOR('',#1960,1.);
#1980=LINE('',#1950,#1970);
#1990=CARTESIAN_POINT('',(-5.6,2.1,0.));
#2000=VERTEX_POINT('',#1990);
#2010=EDGE_CURVE('',#1920,#2000,#1980,.T.);
#2020=ORIENTED_EDGE('',*,*,#2010,.F.);
#2030=CARTESIAN_POINT('',(-5.6,0.,0.));
#2040=DIRECTION('',(-1.,0.,0.));
#2050=DIRECTION('',(0.,1.,0.));
#2060=AXIS2_PLACEMENT_3D('',#2030,#2040,#2050);
#2070=CIRCLE('',#2060,2.1);
#2080=EDGE_CURVE('',#1830,#2000,#2070,.T.);
#2090=ORIENTED_EDGE('',*,*,#2080,.T.);
#2100=EDGE_LOOP('',(#2090,#2020,#1940,#1850));
#2110=FACE_OUTER_BOUND('',#2100,.T.);
#2120=ADVANCED_FACE('M5x0.8_2590126',(#2110),#1750,.F.);
#2130=COLOUR_RGB('',0.,0.,0.501960813999176);
#2140=FILL_AREA_STYLE_COLOUR('',#2130);
#2150=FILL_AREA_STYLE('',(#2140));
#2160=SURFACE_STYLE_FILL_AREA(#2150);
#2170=SURFACE_SIDE_STYLE('',(#2160));
#2180=SURFACE_STYLE_USAGE(.BOTH.,#2170);
#2190=PRESENTATION_STYLE_ASSIGNMENT((#2180));
#2200=CARTESIAN_POINT('',(4.,0.,0.));
#2210=DIRECTION('',(-1.,0.,0.));
#2220=DIRECTION('',(0.,1.,0.));
#2230=AXIS2_PLACEMENT_3D('',#2200,#2210,#2220);
#2240=CONICAL_SURFACE('',#2230,2.1,1.02974425867665);
#2250=CARTESIAN_POINT('',(4.,-2.1,-2.57175827820944E-16));
#2260=DIRECTION('',(-0.515038074910054,-0.857167300702112,
-1.04972719113862E-16));
#2270=VECTOR('',#2260,2.44993013415219);
#2280=LINE('',#2250,#2270);
#2290=CARTESIAN_POINT('',(5.26180729995788,-4.44089209850063E-16,
-4.93038065763132E-32));
#2300=VERTEX_POINT('',#2290);
#2310=EDGE_CURVE('',#2300,#1810,#2280,.T.);
#2320=ORIENTED_EDGE('',*,*,#2310,.T.);
#2330=CARTESIAN_POINT('',(4.,2.1,0.));
#2340=DIRECTION('',(-0.515038074910054,0.857167300702112,0.));
#2350=VECTOR('',#2340,2.44993013415219);
#2360=LINE('',#2330,#2350);
#2370=EDGE_CURVE('',#2300,#1920,#2360,.T.);
#2380=ORIENTED_EDGE('',*,*,#2370,.F.);
#2390=ORIENTED_EDGE('',*,*,#1930,.T.);
#2400=EDGE_LOOP('',(#2390,#2380,#2320));
#2410=FACE_OUTER_BOUND('',#2400,.T.);
#2420=ADVANCED_FACE('',(#2410),#2240,.F.);
#2430=CARTESIAN_POINT('',(-5.6,0.,0.));
#2440=DIRECTION('',(-1.,0.,0.));
#2450=DIRECTION('',(0.,1.,0.));
#2460=AXIS2_PLACEMENT_3D('',#2430,#2440,#2450);
#2470=CONICAL_SURFACE('',#2460,2.1,0.785398163397448);
#2480=CARTESIAN_POINT('',(-5.6,2.1,0.));
#2490=DIRECTION('',(-0.707106781186548,0.707106781186547,0.));
#2500=VECTOR('',#2490,2.9698484809835);
#2510=LINE('',#2480,#2500);
#2520=EDGE_CURVE('',#2000,#1610,#2510,.T.);
#2530=ORIENTED_EDGE('',*,*,#2520,.F.);
#2540=ORIENTED_EDGE('',*,*,#1660,.T.);
#2550=CARTESIAN_POINT('',(-5.6,-2.1,-2.57175827820944E-16));
#2560=DIRECTION('',(-0.707106781186548,-0.707106781186547,
-8.65956056235493E-17));
#2570=VECTOR('',#2560,2.9698484809835);
#2580=LINE('',#2550,#2570);
#2590=EDGE_CURVE('',#1830,#1630,#2580,.T.);
#2600=ORIENTED_EDGE('',*,*,#2590,.T.);
#2610=ORIENTED_EDGE('',*,*,#2080,.F.);
#2620=EDGE_LOOP('',(#2610,#2600,#2540,#2530));
#2630=FACE_OUTER_BOUND('',#2620,.T.);
#2640=ADVANCED_FACE('',(#2630),#2470,.F.);
#2650=CARTESIAN_POINT('',(-6.,-6.,3.60822483003176E-16));
#2660=DIRECTION('',(0.,-0.707106781186548,0.707106781186548));
#2670=DIRECTION('',(0.,-0.707106781186548,-0.707106781186548));
#2680=AXIS2_PLACEMENT_3D('',#2650,#2660,#2670);
#2690=PLANE('',#2680);
#2700=CARTESIAN_POINT('',(33.,-1.10218211923262E-15,6.));
#2710=DIRECTION('',(-1.,0.,0.));
#2720=VECTOR('',#2710,1.);
#2730=LINE('',#2700,#2720);
#2740=CARTESIAN_POINT('',(0.,-1.10218211923262E-15,6.));
#2750=VERTEX_POINT('',#2740);
#2760=EDGE_CURVE('',#2750,#1260,#2730,.T.);
#2770=ORIENTED_EDGE('',*,*,#2760,.T.);
#2780=CARTESIAN_POINT('',(0.,-6.,-2.08166817117217E-17));
#2790=DIRECTION('',(0.,0.707106781186548,0.707106781186548));
#2800=VECTOR('',#2790,1.);
#2810=LINE('',#2780,#2800);
#2820=EDGE_CURVE('',#900,#2750,#2810,.T.);
#2830=ORIENTED_EDGE('',*,*,#2820,.T.);
#2840=CARTESIAN_POINT('',(33.,-6.,-7.34788079488412E-16));
#2850=DIRECTION('',(-1.,0.,0.));
#2860=VECTOR('',#2850,1.);
#2870=LINE('',#2840,#2860);
#2880=EDGE_CURVE('',#900,#1360,#2870,.T.);
#2890=ORIENTED_EDGE('',*,*,#2880,.F.);
#2900=ORIENTED_EDGE('',*,*,#1370,.F.);
#2910=EDGE_LOOP('',(#2900,#2890,#2830,#2770));
#2920=FACE_OUTER_BOUND('',#2910,.T.);
#2930=ADVANCED_FACE('',(#2920),#2690,.T.);
#2940=CARTESIAN_POINT('',(0.,-4.25,0.));
#2950=DIRECTION('',(-1.,0.,0.));
#2960=DIRECTION('',(0.,0.,1.));
#2970=AXIS2_PLACEMENT_3D('',#2940,#2950,#2960);
#2980=PLANE('',#2970);
#2990=ORIENTED_EDGE('',*,*,#2820,.F.);
#3000=EDGE_CURVE('',#900,#2750,#1060,.T.);
#3010=ORIENTED_EDGE('',*,*,#3000,.T.);
#3020=EDGE_LOOP('',(#3010,#2990));
#3030=FACE_OUTER_BOUND('',#3020,.T.);
#3040=ADVANCED_FACE('',(#3030),#2980,.T.);
#3050=CARTESIAN_POINT('',(-6.,0.,6.));
#3060=DIRECTION('',(-0.,0.707106781186548,0.707106781186548));
#3070=DIRECTION('',(0.,-0.707106781186548,0.707106781186548));
#3080=AXIS2_PLACEMENT_3D('',#3050,#3060,#3070);
#3090=PLANE('',#3080);
#3100=CARTESIAN_POINT('',(33.,6.,0.));
#3110=DIRECTION('',(-1.,0.,0.));
#3120=VECTOR('',#3110,1.);
#3130=LINE('',#3100,#3120);
#3140=EDGE_CURVE('',#990,#1280,#3130,.T.);
#3150=ORIENTED_EDGE('',*,*,#3140,.T.);
#3160=CARTESIAN_POINT('',(0.,0.,6.));
#3170=DIRECTION('',(0.,0.707106781186548,-0.707106781186548));
#3180=VECTOR('',#3170,1.);
#3190=LINE('',#3160,#3180);
#3200=EDGE_CURVE('',#2750,#990,#3190,.T.);
#3210=ORIENTED_EDGE('',*,*,#3200,.T.);
#3220=ORIENTED_EDGE('',*,*,#2760,.F.);
#3230=ORIENTED_EDGE('',*,*,#1290,.F.);
#3240=EDGE_LOOP('',(#3230,#3220,#3210,#3150));
#3250=FACE_OUTER_BOUND('',#3240,.T.);
#3260=ADVANCED_FACE('',(#3250),#3090,.T.);
#3270=ORIENTED_EDGE('',*,*,#3200,.F.);
#3280=EDGE_CURVE('',#2750,#990,#1060,.T.);
#3290=ORIENTED_EDGE('',*,*,#3280,.T.);
#3300=EDGE_LOOP('',(#3290,#3270));
#3310=FACE_OUTER_BOUND('',#3300,.T.);
#3320=ADVANCED_FACE('',(#3310),#2980,.T.);
#3330=CARTESIAN_POINT('',(-6.,6.,0.));
#3340=DIRECTION('',(0.,0.707106781186548,-0.707106781186548));
#3350=DIRECTION('',(0.,0.707106781186548,0.707106781186548));
#3360=AXIS2_PLACEMENT_3D('',#3330,#3340,#3350);
#3370=PLANE('',#3360);
#3380=CARTESIAN_POINT('',(33.,3.67394039744206E-16,-6.));
#3390=DIRECTION('',(-1.,0.,0.));
#3400=VECTOR('',#3390,1.);
#3410=LINE('',#3380,#3400);
#3420=EDGE_CURVE('',#1080,#1440,#3410,.T.);
#3430=ORIENTED_EDGE('',*,*,#3420,.T.);
#3440=CARTESIAN_POINT('',(0.,6.,0.));
#3450=DIRECTION('',(0.,-0.707106781186548,-0.707106781186548));
#3460=VECTOR('',#3450,1.);
#3470=LINE('',#3440,#3460);
#3480=EDGE_CURVE('',#990,#1080,#3470,.T.);
#3490=ORIENTED_EDGE('',*,*,#3480,.T.);
#3500=ORIENTED_EDGE('',*,*,#3140,.F.);
#3510=ORIENTED_EDGE('',*,*,#1510,.F.);
#3520=EDGE_LOOP('',(#3510,#3500,#3490,#3430));
#3530=FACE_OUTER_BOUND('',#3520,.T.);
#3540=ADVANCED_FACE('',(#3530),#3370,.T.);
#3550=ORIENTED_EDGE('',*,*,#3480,.F.);
#3560=ORIENTED_EDGE('',*,*,#1090,.T.);
#3570=EDGE_LOOP('',(#3560,#3550));
#3580=FACE_OUTER_BOUND('',#3570,.T.);
#3590=ADVANCED_FACE('',(#3580),#2980,.T.);
#3600=CARTESIAN_POINT('',(-6.,0.,-6.));
#3610=DIRECTION('',(0.,-0.707106781186548,-0.707106781186547));
#3620=DIRECTION('',(0.,0.707106781186547,-0.707106781186548));
#3630=AXIS2_PLACEMENT_3D('',#3600,#3610,#3620);
#3640=PLANE('',#3630);
#3650=ORIENTED_EDGE('',*,*,#2880,.T.);
#3660=CARTESIAN_POINT('',(0.,-6.,3.60822483003176E-16));
#3670=DIRECTION('',(0.,0.707106781186547,-0.707106781186548));
#3680=VECTOR('',#3670,1.);
#3690=LINE('',#3660,#3680);
#3700=EDGE_CURVE('',#900,#1080,#3690,.T.);
#3710=ORIENTED_EDGE('',*,*,#3700,.F.);
#3720=ORIENTED_EDGE('',*,*,#3420,.F.);
#3730=ORIENTED_EDGE('',*,*,#1450,.F.);
#3740=EDGE_LOOP('',(#3730,#3720,#3710,#3650));
#3750=FACE_OUTER_BOUND('',#3740,.T.);
#3760=ADVANCED_FACE('',(#3750),#3640,.T.);
#3770=ORIENTED_EDGE('',*,*,#1110,.T.);
#3780=ORIENTED_EDGE('',*,*,#3700,.T.);
#3790=EDGE_LOOP('',(#3780,#3770));
#3800=FACE_OUTER_BOUND('',#3790,.T.);
#3810=ADVANCED_FACE('',(#3800),#2980,.T.);
#3820=CARTESIAN_POINT('',(-6.,0.,0.));
#3830=DIRECTION('',(-1.,0.,0.));
#3840=DIRECTION('',(0.,1.,0.));
#3850=AXIS2_PLACEMENT_3D('',#3820,#3830,#3840);
#3860=CYLINDRICAL_SURFACE('',#3850,2.1);
#3870=EDGE_CURVE('',#1920,#1810,#1900,.T.);
#3880=ORIENTED_EDGE('',*,*,#3870,.F.);
#3890=ORIENTED_EDGE('',*,*,#1840,.F.);
#3900=EDGE_CURVE('',#2000,#1830,#2070,.T.);
#3910=ORIENTED_EDGE('',*,*,#3900,.T.);
#3920=ORIENTED_EDGE('',*,*,#2010,.T.);
#3930=EDGE_LOOP('',(#3920,#3910,#3890,#3880));
#3940=FACE_OUTER_BOUND('',#3930,.T.);
#3950=ADVANCED_FACE('',(#3940),#3860,.F.);
#3960=COLOUR_RGB('',0.,0.,0.501960813999176);
#3970=FILL_AREA_STYLE_COLOUR('',#3960);
#3980=FILL_AREA_STYLE('',(#3970));
#3990=SURFACE_STYLE_FILL_AREA(#3980);
#4000=SURFACE_SIDE_STYLE('',(#3990));
#4010=SURFACE_STYLE_USAGE(.BOTH.,#4000);
#4020=PRESENTATION_STYLE_ASSIGNMENT((#4010));
#4030=CARTESIAN_POINT('',(73.,0.,0.));
#4040=DIRECTION('',(1.,0.,0.));
#4050=DIRECTION('',(0.,-1.,0.));
#4060=AXIS2_PLACEMENT_3D('',#4030,#4040,#4050);
#4070=CYLINDRICAL_SURFACE('',#4060,10.);
#4080=ORIENTED_EDGE('',*,*,#740,.T.);
#4090=ORIENTED_EDGE('',*,*,#420,.F.);
#4100=ORIENTED_EDGE('',*,*,#150,.F.);
#4110=ORIENTED_EDGE('',*,*,#330,.T.);
#4120=EDGE_LOOP('',(#4110,#4100,#4090,#4080));
#4130=FACE_OUTER_BOUND('',#4120,.T.);
#4140=ADVANCED_FACE('',(#4130),#4070,.T.);
#4150=CARTESIAN_POINT('',(-5.6,0.,0.));
#4160=DIRECTION('',(-1.,0.,0.));
#4170=DIRECTION('',(0.,1.,0.));
#4180=AXIS2_PLACEMENT_3D('',#4150,#4160,#4170);
#4190=CONICAL_SURFACE('',#4180,2.1,0.785398163397448);
#4200=ORIENTED_EDGE('',*,*,#3900,.F.);
#4210=ORIENTED_EDGE('',*,*,#2590,.F.);
#4220=ORIENTED_EDGE('',*,*,#1640,.T.);
#4230=ORIENTED_EDGE('',*,*,#2520,.T.);
#4240=EDGE_LOOP('',(#4230,#4220,#4210,#4200));
#4250=FACE_OUTER_BOUND('',#4240,.T.);
#4260=ADVANCED_FACE('',(#4250),#4190,.F.);
#4270=CARTESIAN_POINT('',(4.,0.,0.));
#4280=DIRECTION('',(-1.,0.,0.));
#4290=DIRECTION('',(0.,1.,0.));
#4300=AXIS2_PLACEMENT_3D('',#4270,#4280,#4290);
#4310=CONICAL_SURFACE('',#4300,2.1,1.02974425867665);
#4320=ORIENTED_EDGE('',*,*,#3870,.T.);
#4330=ORIENTED_EDGE('',*,*,#2370,.T.);
#4340=ORIENTED_EDGE('',*,*,#2310,.F.);
#4350=EDGE_LOOP('',(#4340,#4330,#4320));
#4360=FACE_OUTER_BOUND('',#4350,.T.);
#4370=ADVANCED_FACE('',(#4360),#4310,.F.);
#4380=CARTESIAN_POINT('',(33.,0.,0.));
#4390=DIRECTION('',(-1.,0.,0.));
#4400=DIRECTION('',(0.,1.,0.));
#4410=AXIS2_PLACEMENT_3D('',#4380,#4390,#4400);
#4420=CYLINDRICAL_SURFACE('',#4410,6.);
#4430=ORIENTED_EDGE('',*,*,#680,.F.);
#4440=ORIENTED_EDGE('',*,*,#910,.F.);
#4450=ORIENTED_EDGE('',*,*,#3000,.F.);
#4460=ORIENTED_EDGE('',*,*,#3280,.F.);
#4470=ORIENTED_EDGE('',*,*,#1000,.T.);
#4480=EDGE_LOOP('',(#4470,#4460,#4450,#4440,#4430));
#4490=FACE_OUTER_BOUND('',#4480,.T.);
#4500=ADVANCED_FACE('',(#4490),#4420,.T.);
#4510=CLOSED_SHELL('',(#210,#530,#790,#1150,#1700,#2120,#2420,#2640,
#2930,#3040,#3260,#3320,#3540,#3590,#3760,#3810,#3950,#4140,#4260,#4370,
#4500));
#4520=MANIFOLD_SOLID_BREP('',#4510);
#4530=CARTESIAN_POINT('',(0.,0.,0.));
#4540=DIRECTION('',(0.,0.,1.));
#4550=DIRECTION('',(1.,0.,0.));
#4560=AXIS2_PLACEMENT_3D('',#4530,#4540,#4550);
#4570=APPLICATION_CONTEXT(' ');
#4580=APPLICATION_PROTOCOL_DEFINITION(' ','automotive_design',1998,#4570
);
#4590=PRODUCT_CONTEXT('',#4570,'mechanical');
#4600=PRODUCT_DEFINITION_CONTEXT('part definition',#4570,'design');
#4610=PRODUCT('axe','axe','',(#4590));
#4620=PRODUCT_RELATED_PRODUCT_CATEGORY('part',' ',(#4610));
#4630=PRODUCT_DEFINITION_FORMATION_WITH_SPECIFIED_SOURCE('','',#4610,
.BOUGHT.);
#4640=PRODUCT_DEFINITION('',' ',#4630,#4600);
#4650=PRODUCT_DEFINITION_SHAPE('','',#4640);
#4660=DIMENSIONAL_EXPONENTS(1.,0.,0.,0.,0.,0.,0.);
#4670=DIMENSIONAL_EXPONENTS(0.,0.,0.,0.,0.,0.,0.);
#4680=DIMENSIONAL_EXPONENTS(0.,0.,0.,0.,0.,0.,0.);
#4690=(LENGTH_UNIT() NAMED_UNIT(*) SI_UNIT(.MILLI.,.METRE.));
#4700=(NAMED_UNIT(*) PLANE_ANGLE_UNIT() SI_UNIT($,.RADIAN.));
#4710=(NAMED_UNIT(*) SI_UNIT($,.STERADIAN.) SOLID_ANGLE_UNIT());
#4720=(GEOMETRIC_REPRESENTATION_CONTEXT(3) 
GLOBAL_UNCERTAINTY_ASSIGNED_CONTEXT((#4730)) 
GLOBAL_UNIT_ASSIGNED_CONTEXT((#4690,#4700,#4710)) REPRESENTATION_CONTEXT
('',''));
#4730=UNCERTAINTY_MEASURE_WITH_UNIT(LENGTH_MEASURE(1.E-6),#4690,
'distance_accuracy_value','maximum gap value');
#4740=ADVANCED_BREP_SHAPE_REPRESENTATION('',(#4560,#4520),#4720);
#4750=SHAPE_DEFINITION_REPRESENTATION(#4650,#4740);
#4760=COLOUR_RGB('',0.600000023841858,0.600000023841858,
0.600000023841858);
#4770=FILL_AREA_STYLE_COLOUR('',#4760);
#4780=FILL_AREA_STYLE('',(#4770));
#4790=SURFACE_STYLE_FILL_AREA(#4780);
#4800=SURFACE_SIDE_STYLE('',(#4790));
#4810=SURFACE_STYLE_USAGE(.BOTH.,#4800);
#4820=PRESENTATION_STYLE_ASSIGNMENT((#4810));
#4830=STYLED_ITEM('',(#4820),#4520);
#4840=OVER_RIDING_STYLED_ITEM('',(#2190),#2120,#4830);
#4850=OVER_RIDING_STYLED_ITEM('',(#4020),#3950,#4830);
#4860=DRAUGHTING_MODEL('',(#4830,#4840,#4850),#4720);
ENDSEC;
END-ISO-10303-21;
