0
SECTION
2
HEADER
9
$INSUNITS
70
4
9
$ACADVER
1
AC1014
9
$HANDSEED
5
FFFF
0
ENDSEC
0
SECTION
2
TABLES
0
TABLE
2
VPORT
5
8
100
AcDbSymbolTable
0
ENDTAB
0
TABLE
2
LTYPE
5
5
100
AcDbSymbolTable
0
LTYPE
5
14
100
AcDbSymbolTableRecord
100
AcDbLinetypeTableRecord
2
BYBLOCK
70
0
0
LTYPE
5
15
100
AcDbSymbolTableRecord
100
AcDbLinetypeTableRecord
2
BYLAYER
70
0
0
ENDTAB
0
TABLE
2
LAYER
5
2
100
AcDbSymbolTable
70
2
0
LAYER
5
50
100
AcDbSymbolTableRecord
100
AcDbLayerTableRecord
2
0
70
0
6
CONTINUOUS
0
ENDTAB
0
TABLE
2
STYLE
5
3
100
AcDbSymbolTable
70
1
0
STYLE
5
11
100
AcDbSymbolTableRecord
100
AcDbTextStyleTableRecord
2
STANDARD
70
0
0
ENDTAB
0
TABLE
2
VIEW
5
6
100
AcDbSymbolTable
70
0
0
ENDTAB
0
TABLE
2
UCS
5
7
100
AcDbSymbolTable
70
0
0
ENDTAB
0
TABLE
2
APPID
5
9
100
AcDbSymbolTable
70
2
0
APPID
5
12
100
AcDbSymbolTableRecord
100
AcDbRegAppTableRecord
2
ACAD
70
0
0
ENDTAB
0
TABLE
2
DIMSTYLE
5
A
100
AcDbSymbolTable
70
1
0
ENDTAB
0
TABLE
2
BLOCK_RECORD
5
1
100
AcDbSymbolTable
70
1
0
BLOCK_RECORD
5
1F
100
AcDbSymbolTableRecord
100
AcDbBlockTableRecord
2
*MODEL_SPACE
0
BLOCK_RECORD
5
1B
100
AcDbSymbolTableRecord
100
AcDbBlockTableRecord
2
*PAPER_SPACE
0
ENDTAB
0
ENDSEC
0
SECTION
2
BLOCKS
0
BLOCK
5
20
100
AcDbEntity
100
AcDbBlockBegin
2
*MODEL_SPACE
0
ENDBLK
5
21
100
AcDbEntity
100
AcDbBlockEnd
0
BLOCK
5
1C
100
AcDbEntity
100
AcDbBlockBegin
2
*PAPER_SPACE
0
ENDBLK
5
1D
100
AcDbEntity
100
AcDbBlockEnd
0
ENDSEC
0
SECTION
2
ENTITIES
0
CIRCLE
5
100
100
AcDbEntity
8
0
100
AcDbCircle
10
29.499999999999975
20
97.049999999999983
30
0
40
1.25
210
0
220
-0
230
1
0
CIRCLE
5
101
100
AcDbEntity
8
0
100
AcDbCircle
10
31.150000000003132
20
55.974999999999483
30
0
40
1.25
210
0
220
-0
230
1
0
CIRCLE
5
102
100
AcDbEntity
8
0
100
AcDbCircle
10
-29.499999999999975
20
97.049999999999983
30
0
40
1.25
210
0
220
-0
230
1
0
CIRCLE
5
103
100
AcDbEntity
8
0
100
AcDbCircle
10
-30.450000000000173
20
10.200000000000387
30
0
40
1.25
210
0
220
-0
230
1
0
CIRCLE
5
104
100
AcDbEntity
8
0
100
AcDbCircle
10
-22.450000000000173
20
10.199999999999603
30
0
40
1.25
210
0
220
-0
230
1
0
CIRCLE
5
105
100
AcDbEntity
8
0
100
AcDbCircle
10
5.009751297472091e-14
20
151
30
0
40
2.1000000000000001
210
0
220
-0
230
1
0
LWPOLYLINE
5
106
100
AcDbEntity
8
0
100
AcDbPolyline
90
4
70
1
43
0.0
10
12.000000000000002
20
2.5046519572315935e-15
42
0.99999999999999989
10
-12.000000000000002
20
-1.1102230246251565e-15
10
-12.000000000000004
20
-9.9999999999999964
42
0.99999999999999989
10
12.000000000000004
20
-9.9999999999999964
0
CIRCLE
5
107
100
AcDbEntity
8
0
100
AcDbCircle
10
-27.624999999999975
20
-35.625
30
0
40
1.6000000000000014
210
0
220
0
230
1
0
LWPOLYLINE
5
108
100
AcDbEntity
8
0
100
AcDbPolyline
90
4
70
1
43
0.0
10
-17.150000000001523
20
-25.499999999998664
42
0.99999999999999989
10
-13.850000000001522
20
-25.499999999999041
10
-13.849999999998051
20
-15.499999999998696
42
0.99999999999999989
10
-17.150000000002731
20
-15.499999999999009
0
CIRCLE
5
109
100
AcDbEntity
8
0
100
AcDbCircle
10
-19.999999999999947
20
65
30
0
40
1.25
210
0
220
0
230
1
0
CIRCLE
5
110
100
AcDbEntity
8
0
100
AcDbCircle
10
-19.999999999999947
20
45
30
0
40
1.25
210
0
220
0
230
1
0
CIRCLE
5
111
100
AcDbEntity
8
0
100
AcDbCircle
10
-25.999999999999947
20
125
30
0
40
1.25
210
0
220
0
230
1
0
LWPOLYLINE
5
112
100
AcDbEntity
8
0
100
AcDbPolyline
90
4
70
1
43
0.0
10
-13.849999999998115
20
15.499999999999488
42
0.99999999999999989
10
-17.150000000001889
20
15.500000000000384
10
-17.149999999998119
20
5.4999999999976783
42
0.99999999999999989
10
-13.849999999998047
20
5.5000000000002105
0
CIRCLE
5
113
100
AcDbEntity
8
0
100
AcDbCircle
10
-9.9999999999999556
20
27.624999999999993
30
0
40
2.1499999999999995
210
0
220
0
230
1
0
CIRCLE
5
114
100
AcDbEntity
8
0
100
AcDbCircle
10
-25.999999999999947
20
145
30
0
40
1.25
210
0
220
0
230
1
0
CIRCLE
5
115
100
AcDbEntity
8
0
100
AcDbCircle
10
-19.999999999999947
20
125
30
0
40
1.25
210
0
220
0
230
1
0
CIRCLE
5
116
100
AcDbEntity
8
0
100
AcDbCircle
10
-19.999999999999947
20
105
30
0
40
1.25
210
0
220
0
230
1
0
CIRCLE
5
117
100
AcDbEntity
8
0
100
AcDbCircle
10
-13.999999999999947
20
155
30
0
40
1.25
210
0
220
0
230
1
0
CIRCLE
5
118
100
AcDbEntity
8
0
100
AcDbCircle
10
-28.12499999999995
20
27.624999999999993
30
0
40
2.1499999999999986
210
0
220
0
230
1
0
CIRCLE
5
119
100
AcDbEntity
8
0
100
AcDbCircle
10
-28.124999999999947
20
-4.6628302369091689e-15
30
0
40
2.1499999999999986
210
0
220
0
230
1
0
CIRCLE
5
120
100
AcDbEntity
8
0
100
AcDbCircle
10
-9.9999999999999485
20
-35.625
30
0
40
1.6000000000000003
210
0
220
0
230
1
0
LWPOLYLINE
5
121
100
AcDbEntity
8
0
100
AcDbPolyline
90
4
70
1
43
0.0
10
-28.299999999996768
20
68.499999999996732
42
0.99999999999999989
10
-31.499999999996771
20
68.499999999999645
10
-31.500000000003133
20
61.499999999999631
42
0.99999999999999989
10
-28.300000000003131
20
61.499999999996717
0
CIRCLE
5
122
100
AcDbEntity
8
0
100
AcDbCircle
10
-9.9999999999999467
20
156.50000000000003
30
0
40
1.25
210
0
220
0
230
1
0
CIRCLE
5
123
100
AcDbEntity
8
0
100
AcDbCircle
10
-19.999999999999947
20
25
30
0
40
1.25
210
0
220
0
230
1
0
CIRCLE
5
124
100
AcDbEntity
8
0
100
AcDbCircle
10
-19.999999999999947
20
145
30
0
40
1.25
210
0
220
0
230
1
0
CIRCLE
5
125
100
AcDbEntity
8
0
100
AcDbCircle
10
-28.99999999999995
20
155
30
0
40
1.25
210
0
220
0
230
1
0
CIRCLE
5
126
100
AcDbEntity
8
0
100
AcDbCircle
10
-19.999999999999947
20
85
30
0
40
1.25
210
0
220
0
230
1
0
CIRCLE
5
127
100
AcDbEntity
8
0
100
AcDbCircle
10
-27.624999999999975
20
-17.625
30
0
40
1.6000000000000014
210
0
220
0
230
1
0
CIRCLE
5
128
100
AcDbEntity
8
0
100
AcDbCircle
10
-9.9999999999999378
20
75
30
0
40
3.0000000000000004
210
0
220
-0
230
1
0
CIRCLE
5
129
100
AcDbEntity
8
0
100
AcDbCircle
10
-9.9999999999999378
20
55
30
0
40
3.0000000000000004
210
0
220
-0
230
1
0
CIRCLE
5
130
100
AcDbEntity
8
0
100
AcDbCircle
10
9.9999999999999378
20
55
30
0
40
3.0000000000000004
210
0
220
-0
230
1
0
CIRCLE
5
131
100
AcDbEntity
8
0
100
AcDbCircle
10
9.9999999999999378
20
75
30
0
40
3.0000000000000004
210
0
220
-0
230
1
0
CIRCLE
5
132
100
AcDbEntity
8
0
100
AcDbCircle
10
27.624999999999975
20
-17.625
30
0
40
1.6000000000000014
210
0
220
-0
230
1
0
CIRCLE
5
133
100
AcDbEntity
8
0
100
AcDbCircle
10
19.999999999999947
20
85
30
0
40
1.25
210
0
220
-0
230
1
0
CIRCLE
5
134
100
AcDbEntity
8
0
100
AcDbCircle
10
28.99999999999995
20
155
30
0
40
1.25
210
0
220
-0
230
1
0
CIRCLE
5
135
100
AcDbEntity
8
0
100
AcDbCircle
10
19.999999999999947
20
145
30
0
40
1.25
210
0
220
-0
230
1
0
CIRCLE
5
136
100
AcDbEntity
8
0
100
AcDbCircle
10
19.999999999999947
20
25
30
0
40
1.25
210
0
220
-0
230
1
0
CIRCLE
5
137
100
AcDbEntity
8
0
100
AcDbCircle
10
9.9999999999999467
20
156.50000000000003
30
0
40
1.25
210
0
220
-0
230
1
0
LWPOLYLINE
5
138
100
AcDbEntity
8
0
100
AcDbPolyline
90
4
70
1
43
0.0
10
31.499999999996771
20
68.499999999999645
42
0.99999999999999989
10
28.299999999996768
20
68.499999999996732
10
28.300000000003131
20
61.499999999996717
42
0.99999999999999989
10
31.500000000003133
20
61.499999999999631
0
CIRCLE
5
139
100
AcDbEntity
8
0
100
AcDbCircle
10
9.9999999999999485
20
-35.625
30
0
40
1.6000000000000003
210
0
220
-0
230
1
0
CIRCLE
5
140
100
AcDbEntity
8
0
100
AcDbCircle
10
28.124999999999947
20
-4.6628302369091689e-15
30
0
40
2.1499999999999986
210
0
220
-0
230
1
0
CIRCLE
5
141
100
AcDbEntity
8
0
100
AcDbCircle
10
28.12499999999995
20
27.624999999999993
30
0
40
2.1499999999999986
210
0
220
-0
230
1
0
CIRCLE
5
142
100
AcDbEntity
8
0
100
AcDbCircle
10
13.999999999999947
20
155
30
0
40
1.25
210
0
220
-0
230
1
0
CIRCLE
5
143
100
AcDbEntity
8
0
100
AcDbCircle
10
19.999999999999947
20
105
30
0
40
1.25
210
0
220
-0
230
1
0
CIRCLE
5
144
100
AcDbEntity
8
0
100
AcDbCircle
10
19.999999999999947
20
125
30
0
40
1.25
210
0
220
-0
230
1
0
CIRCLE
5
145
100
AcDbEntity
8
0
100
AcDbCircle
10
25.999999999999947
20
145
30
0
40
1.25
210
0
220
-0
230
1
0
CIRCLE
5
146
100
AcDbEntity
8
0
100
AcDbCircle
10
9.9999999999999556
20
27.624999999999993
30
0
40
2.1499999999999995
210
0
220
-0
230
1
0
LWPOLYLINE
5
147
100
AcDbEntity
8
0
100
AcDbPolyline
90
4
70
1
43
0.0
10
17.150000000001889
20
15.500000000000384
42
0.99999999999999989
10
13.849999999998115
20
15.499999999999488
10
13.850000000001881
20
5.5000000000002105
42
0.99999999999999989
10
17.149999999998119
20
5.4999999999976783
0
CIRCLE
5
148
100
AcDbEntity
8
0
100
AcDbCircle
10
25.999999999999947
20
125
30
0
40
1.25
210
0
220
-0
230
1
0
CIRCLE
5
149
100
AcDbEntity
8
0
100
AcDbCircle
10
19.999999999999947
20
45
30
0
40
1.25
210
0
220
-0
230
1
0
CIRCLE
5
150
100
AcDbEntity
8
0
100
AcDbCircle
10
19.999999999999947
20
65
30
0
40
1.25
210
0
220
-0
230
1
0
LWPOLYLINE
5
151
100
AcDbEntity
8
0
100
AcDbPolyline
90
4
70
1
43
0.0
10
13.850000000001522
20
-25.499999999999041
42
0.99999999999999989
10
17.150000000001523
20
-25.499999999998664
10
17.150000000002731
20
-15.499999999999009
42
0.99999999999999989
10
13.849999999998051
20
-15.499999999998696
0
CIRCLE
5
152
100
AcDbEntity
8
0
100
AcDbCircle
10
27.624999999999975
20
-35.625
30
0
40
1.6000000000000014
210
0
220
-0
230
1
0
LWPOLYLINE
5
153
100
AcDbEntity
8
0
100
AcDbPolyline
90
8
70
1
43
0.0
10
30.999999999999943
20
160
10
-30.999999999999943
20
160
42
0.41421356237309503
10
-33.99999999999995
20
157
10
-33.99999999999995
20
-36.999999999999993
42
0.41421356237309592
10
-30.99999999999995
20
-40
10
30.99999999999995
20
-40
42
0.41421356237309503
10
33.99999999999995
20
-37
10
33.99999999999995
20
157
42
0.41421356237309892
0
CIRCLE
5
154
100
AcDbEntity
8
0
100
AcDbCircle
10
-9.9999999999999396
20
75
30
0
40
1.6000000000000003
210
0
220
0
230
1
0
CIRCLE
5
155
100
AcDbEntity
8
0
100
AcDbCircle
10
-9.9999999999999396
20
55
30
0
40
1.6000000000000003
210
0
220
0
230
1
0
CIRCLE
5
156
100
AcDbEntity
8
0
100
AcDbCircle
10
9.9999999999999396
20
55
30
0
40
1.6000000000000003
210
0
220
-0
230
1
0
CIRCLE
5
157
100
AcDbEntity
8
0
100
AcDbCircle
10
9.9999999999999396
20
75
30
0
40
1.6000000000000003
210
0
220
-0
230
1
0
ENDSEC
0
SECTION
2
OBJECTS
0
DICTIONARY
5
C
100
AcDbDictionary
3
ACAD_GROUP
350
D
3
ACAD_MLINESTYLE
350
17
0
DICTIONARY
5
D
100
AcDbDictionary
0
DICTIONARY
5
1A
330
C
100
AcDbDictionary
0
DICTIONARY
5
17
100
AcDbDictionary
0
ENDSEC
0
EOF
