ISO-10303-21;
HEADER;
/* Generated by software containing ST-Developer
 * from STEP Tools, Inc. (www.steptools.com) 
 */

FILE_DESCRIPTION(
/* description */ (''),
/* implementation_level */ '2;1');

FILE_NAME(
/* name */ 'Magnet_Plate_Acier.step',
/* time_stamp */ '2024-05-05T11:15:21+02:00',
/* author */ (''),
/* organization */ (''),
/* preprocessor_version */ 'ST-DEVELOPER v20',
/* originating_system */ 'Autodesk Translation Framework v12.20.1.177',

/* authorisation */ '');

FILE_SCHEMA (('AUTOMOTIVE_DESIGN { 1 0 10303 214 3 1 1 }'));
ENDSEC;

DATA;
#10=MECHANICAL_DESIGN_GEOMETRIC_PRESENTATION_REPRESENTATION('',(#13),#221);
#11=SHAPE_REPRESENTATION_RELATIONSHIP('SRR','None',#228,#12);
#12=ADVANCED_BREP_SHAPE_REPRESENTATION('',(#14),#220);
#13=STYLED_ITEM('',(#237),#14);
#14=MANIFOLD_SOLID_BREP('Corps1',#117);
#15=LINE('',#201,#19);
#16=LINE('',#205,#20);
#17=LINE('',#214,#21);
#18=LINE('',#217,#22);
#19=VECTOR('',#164,5.75);
#20=VECTOR('',#169,5.75);
#21=VECTOR('',#182,7.5);
#22=VECTOR('',#187,35.);
#23=CYLINDRICAL_SURFACE('',#135,5.75);
#24=CYLINDRICAL_SURFACE('',#138,5.75);
#25=CYLINDRICAL_SURFACE('',#144,7.5);
#26=CYLINDRICAL_SURFACE('',#147,35.);
#27=FACE_BOUND('',#38,.T.);
#28=FACE_BOUND('',#39,.T.);
#29=FACE_BOUND('',#43,.T.);
#30=FACE_OUTER_BOUND('',#37,.T.);
#31=FACE_OUTER_BOUND('',#40,.T.);
#32=FACE_OUTER_BOUND('',#41,.T.);
#33=FACE_OUTER_BOUND('',#42,.T.);
#34=FACE_OUTER_BOUND('',#44,.T.);
#35=FACE_OUTER_BOUND('',#45,.T.);
#36=FACE_OUTER_BOUND('',#46,.T.);
#37=EDGE_LOOP('',(#79));
#38=EDGE_LOOP('',(#80));
#39=EDGE_LOOP('',(#81));
#40=EDGE_LOOP('',(#82,#83,#84,#85,#86));
#41=EDGE_LOOP('',(#87,#88,#89,#90));
#42=EDGE_LOOP('',(#91));
#43=EDGE_LOOP('',(#92,#93,#94,#95,#96));
#44=EDGE_LOOP('',(#97,#98,#99,#100,#101));
#45=EDGE_LOOP('',(#102));
#46=EDGE_LOOP('',(#103,#104,#105,#106));
#47=CIRCLE('',#132,35.);
#48=CIRCLE('',#133,5.75);
#49=CIRCLE('',#134,5.75);
#50=CIRCLE('',#136,5.75);
#51=CIRCLE('',#137,5.75);
#52=CIRCLE('',#139,5.75);
#53=CIRCLE('',#141,35.);
#54=CIRCLE('',#142,7.5);
#55=CIRCLE('',#143,7.5);
#56=CIRCLE('',#145,7.5);
#57=VERTEX_POINT('',#190);
#58=VERTEX_POINT('',#192);
#59=VERTEX_POINT('',#194);
#60=VERTEX_POINT('',#197);
#61=VERTEX_POINT('',#198);
#62=VERTEX_POINT('',#203);
#63=VERTEX_POINT('',#207);
#64=VERTEX_POINT('',#212);
#65=EDGE_CURVE('',#57,#57,#47,.T.);
#66=EDGE_CURVE('',#58,#58,#48,.T.);
#67=EDGE_CURVE('',#59,#59,#49,.T.);
#68=EDGE_CURVE('',#60,#61,#50,.T.);
#69=EDGE_CURVE('',#61,#60,#51,.T.);
#70=EDGE_CURVE('',#61,#58,#15,.T.);
#71=EDGE_CURVE('',#62,#62,#52,.T.);
#72=EDGE_CURVE('',#62,#59,#16,.T.);
#73=EDGE_CURVE('',#63,#63,#53,.T.);
#74=EDGE_CURVE('',#60,#62,#54,.T.);
#75=EDGE_CURVE('',#62,#60,#55,.T.);
#76=EDGE_CURVE('',#64,#64,#56,.T.);
#77=EDGE_CURVE('',#64,#60,#17,.T.);
#78=EDGE_CURVE('',#63,#57,#18,.T.);
#79=ORIENTED_EDGE('',*,*,#65,.F.);
#80=ORIENTED_EDGE('',*,*,#66,.F.);
#81=ORIENTED_EDGE('',*,*,#67,.F.);
#82=ORIENTED_EDGE('',*,*,#68,.F.);
#83=ORIENTED_EDGE('',*,*,#69,.F.);
#84=ORIENTED_EDGE('',*,*,#70,.T.);
#85=ORIENTED_EDGE('',*,*,#66,.T.);
#86=ORIENTED_EDGE('',*,*,#70,.F.);
#87=ORIENTED_EDGE('',*,*,#71,.F.);
#88=ORIENTED_EDGE('',*,*,#72,.T.);
#89=ORIENTED_EDGE('',*,*,#67,.T.);
#90=ORIENTED_EDGE('',*,*,#72,.F.);
#91=ORIENTED_EDGE('',*,*,#73,.T.);
#92=ORIENTED_EDGE('',*,*,#74,.T.);
#93=ORIENTED_EDGE('',*,*,#71,.T.);
#94=ORIENTED_EDGE('',*,*,#75,.T.);
#95=ORIENTED_EDGE('',*,*,#68,.T.);
#96=ORIENTED_EDGE('',*,*,#69,.T.);
#97=ORIENTED_EDGE('',*,*,#76,.F.);
#98=ORIENTED_EDGE('',*,*,#77,.T.);
#99=ORIENTED_EDGE('',*,*,#75,.F.);
#100=ORIENTED_EDGE('',*,*,#74,.F.);
#101=ORIENTED_EDGE('',*,*,#77,.F.);
#102=ORIENTED_EDGE('',*,*,#76,.T.);
#103=ORIENTED_EDGE('',*,*,#73,.F.);
#104=ORIENTED_EDGE('',*,*,#78,.T.);
#105=ORIENTED_EDGE('',*,*,#65,.T.);
#106=ORIENTED_EDGE('',*,*,#78,.F.);
#107=PLANE('',#131);
#108=PLANE('',#140);
#109=PLANE('',#146);
#110=ADVANCED_FACE('',(#30,#27,#28),#107,.F.);
#111=ADVANCED_FACE('',(#31),#23,.F.);
#112=ADVANCED_FACE('',(#32),#24,.F.);
#113=ADVANCED_FACE('',(#33,#29),#108,.T.);
#114=ADVANCED_FACE('',(#34),#25,.T.);
#115=ADVANCED_FACE('',(#35),#109,.T.);
#116=ADVANCED_FACE('',(#36),#26,.T.);
#117=CLOSED_SHELL('',(#110,#111,#112,#113,#114,#115,#116));
#118=DERIVED_UNIT_ELEMENT(#120,1.);
#119=DERIVED_UNIT_ELEMENT(#223,-3.);
#120=(
MASS_UNIT()
NAMED_UNIT(*)
SI_UNIT(.KILO.,.GRAM.)
);
#121=DERIVED_UNIT((#118,#119));
#122=MEASURE_REPRESENTATION_ITEM('density measure',
POSITIVE_RATIO_MEASURE(7850.),#121);
#123=PROPERTY_DEFINITION_REPRESENTATION(#128,#125);
#124=PROPERTY_DEFINITION_REPRESENTATION(#129,#126);
#125=REPRESENTATION('material name',(#127),#220);
#126=REPRESENTATION('density',(#122),#220);
#127=DESCRIPTIVE_REPRESENTATION_ITEM('Acier','Acier');
#128=PROPERTY_DEFINITION('material property','material name',#230);
#129=PROPERTY_DEFINITION('material property','density of part',#230);
#130=AXIS2_PLACEMENT_3D('',#188,#148,#149);
#131=AXIS2_PLACEMENT_3D('',#189,#150,#151);
#132=AXIS2_PLACEMENT_3D('',#191,#152,#153);
#133=AXIS2_PLACEMENT_3D('',#193,#154,#155);
#134=AXIS2_PLACEMENT_3D('',#195,#156,#157);
#135=AXIS2_PLACEMENT_3D('',#196,#158,#159);
#136=AXIS2_PLACEMENT_3D('',#199,#160,#161);
#137=AXIS2_PLACEMENT_3D('',#200,#162,#163);
#138=AXIS2_PLACEMENT_3D('',#202,#165,#166);
#139=AXIS2_PLACEMENT_3D('',#204,#167,#168);
#140=AXIS2_PLACEMENT_3D('',#206,#170,#171);
#141=AXIS2_PLACEMENT_3D('',#208,#172,#173);
#142=AXIS2_PLACEMENT_3D('',#209,#174,#175);
#143=AXIS2_PLACEMENT_3D('',#210,#176,#177);
#144=AXIS2_PLACEMENT_3D('',#211,#178,#179);
#145=AXIS2_PLACEMENT_3D('',#213,#180,#181);
#146=AXIS2_PLACEMENT_3D('',#215,#183,#184);
#147=AXIS2_PLACEMENT_3D('',#216,#185,#186);
#148=DIRECTION('axis',(0.,0.,1.));
#149=DIRECTION('refdir',(1.,0.,0.));
#150=DIRECTION('center_axis',(0.,1.,0.));
#151=DIRECTION('ref_axis',(1.,0.,0.));
#152=DIRECTION('center_axis',(0.,1.,0.));
#153=DIRECTION('ref_axis',(1.,0.,0.));
#154=DIRECTION('center_axis',(0.,-1.,0.));
#155=DIRECTION('ref_axis',(-1.,0.,0.));
#156=DIRECTION('center_axis',(0.,-1.,0.));
#157=DIRECTION('ref_axis',(-1.,0.,0.));
#158=DIRECTION('center_axis',(0.,-1.,0.));
#159=DIRECTION('ref_axis',(-1.,0.,0.));
#160=DIRECTION('center_axis',(0.,-1.,0.));
#161=DIRECTION('ref_axis',(-1.,0.,0.));
#162=DIRECTION('center_axis',(0.,-1.,0.));
#163=DIRECTION('ref_axis',(-1.,0.,0.));
#164=DIRECTION('',(0.,-1.,0.));
#165=DIRECTION('center_axis',(0.,-1.,0.));
#166=DIRECTION('ref_axis',(-1.,0.,0.));
#167=DIRECTION('center_axis',(0.,-1.,0.));
#168=DIRECTION('ref_axis',(-1.,0.,0.));
#169=DIRECTION('',(0.,-1.,0.));
#170=DIRECTION('center_axis',(0.,1.,0.));
#171=DIRECTION('ref_axis',(1.,0.,0.));
#172=DIRECTION('center_axis',(0.,1.,0.));
#173=DIRECTION('ref_axis',(1.,0.,0.));
#174=DIRECTION('center_axis',(0.,-1.,0.));
#175=DIRECTION('ref_axis',(-1.,0.,0.));
#176=DIRECTION('center_axis',(0.,-1.,0.));
#177=DIRECTION('ref_axis',(-1.,0.,0.));
#178=DIRECTION('center_axis',(0.,1.,0.));
#179=DIRECTION('ref_axis',(-1.,0.,0.));
#180=DIRECTION('center_axis',(0.,1.,0.));
#181=DIRECTION('ref_axis',(-1.,0.,0.));
#182=DIRECTION('',(0.,-1.,0.));
#183=DIRECTION('center_axis',(0.,1.,0.));
#184=DIRECTION('ref_axis',(-1.,0.,0.));
#185=DIRECTION('center_axis',(0.,1.,0.));
#186=DIRECTION('ref_axis',(1.,0.,0.));
#187=DIRECTION('',(0.,-1.,0.));
#188=CARTESIAN_POINT('',(0.,0.,0.));
#189=CARTESIAN_POINT('Origin',(0.,0.2,0.));
#190=CARTESIAN_POINT('',(-35.,0.2,4.28626379701574E-15));
#191=CARTESIAN_POINT('Origin',(0.,0.2,0.));
#192=CARTESIAN_POINT('',(19.,0.2,-7.04171909509728E-16));
#193=CARTESIAN_POINT('Origin',(13.25,0.2,-1.92592994438724E-32));
#194=CARTESIAN_POINT('',(-7.5,0.2,-7.04171909509728E-16));
#195=CARTESIAN_POINT('Origin',(-13.25,0.2,1.92592994438724E-32));
#196=CARTESIAN_POINT('Origin',(13.25,4.,-1.92592994438724E-32));
#197=CARTESIAN_POINT('',(7.5,4.,-9.18485099360515E-16));
#198=CARTESIAN_POINT('',(19.,4.,7.04171909509728E-16));
#199=CARTESIAN_POINT('Origin',(13.25,4.,-1.92592994438724E-32));
#200=CARTESIAN_POINT('Origin',(13.25,4.,-1.92592994438724E-32));
#201=CARTESIAN_POINT('',(19.,4.,7.04171909509728E-16));
#202=CARTESIAN_POINT('Origin',(-13.25,4.,1.92592994438724E-32));
#203=CARTESIAN_POINT('',(-7.5,4.,-7.04171909509728E-16));
#204=CARTESIAN_POINT('Origin',(-13.25,4.,1.92592994438724E-32));
#205=CARTESIAN_POINT('',(-7.5,4.,7.04171909509728E-16));
#206=CARTESIAN_POINT('Origin',(0.,4.,0.));
#207=CARTESIAN_POINT('',(-35.,4.,4.28626379701574E-15));
#208=CARTESIAN_POINT('Origin',(0.,4.,0.));
#209=CARTESIAN_POINT('Origin',(0.,4.,0.));
#210=CARTESIAN_POINT('Origin',(0.,4.,0.));
#211=CARTESIAN_POINT('Origin',(0.,4.,0.));
#212=CARTESIAN_POINT('',(7.5,16.,-9.18485099360515E-16));
#213=CARTESIAN_POINT('Origin',(0.,16.,0.));
#214=CARTESIAN_POINT('',(7.5,4.,-9.18485099360515E-16));
#215=CARTESIAN_POINT('Origin',(0.,16.,0.));
#216=CARTESIAN_POINT('Origin',(0.,0.,0.));
#217=CARTESIAN_POINT('',(-35.,0.,4.28626379701574E-15));
#218=UNCERTAINTY_MEASURE_WITH_UNIT(LENGTH_MEASURE(0.01),#222,
'DISTANCE_ACCURACY_VALUE',
'Maximum model space distance between geometric entities at asserted c
onnectivities');
#219=UNCERTAINTY_MEASURE_WITH_UNIT(LENGTH_MEASURE(0.01),#222,
'DISTANCE_ACCURACY_VALUE',
'Maximum model space distance between geometric entities at asserted c
onnectivities');
#220=(
GEOMETRIC_REPRESENTATION_CONTEXT(3)
GLOBAL_UNCERTAINTY_ASSIGNED_CONTEXT((#218))
GLOBAL_UNIT_ASSIGNED_CONTEXT((#222,#224,#225))
REPRESENTATION_CONTEXT('','3D')
);
#221=(
GEOMETRIC_REPRESENTATION_CONTEXT(3)
GLOBAL_UNCERTAINTY_ASSIGNED_CONTEXT((#219))
GLOBAL_UNIT_ASSIGNED_CONTEXT((#222,#224,#225))
REPRESENTATION_CONTEXT('','3D')
);
#222=(
LENGTH_UNIT()
NAMED_UNIT(*)
SI_UNIT(.MILLI.,.METRE.)
);
#223=(
LENGTH_UNIT()
NAMED_UNIT(*)
SI_UNIT($,.METRE.)
);
#224=(
NAMED_UNIT(*)
PLANE_ANGLE_UNIT()
SI_UNIT($,.RADIAN.)
);
#225=(
NAMED_UNIT(*)
SI_UNIT($,.STERADIAN.)
SOLID_ANGLE_UNIT()
);
#226=SHAPE_DEFINITION_REPRESENTATION(#227,#228);
#227=PRODUCT_DEFINITION_SHAPE('',$,#230);
#228=SHAPE_REPRESENTATION('',(#130),#220);
#229=PRODUCT_DEFINITION_CONTEXT('part definition',#234,'design');
#230=PRODUCT_DEFINITION('Magnet_Plate','Magnet_Plate v6',#231,#229);
#231=PRODUCT_DEFINITION_FORMATION('',$,#236);
#232=PRODUCT_RELATED_PRODUCT_CATEGORY('Magnet_Plate v6',
'Magnet_Plate v6',(#236));
#233=APPLICATION_PROTOCOL_DEFINITION('international standard',
'automotive_design',2009,#234);
#234=APPLICATION_CONTEXT(
'Core Data for Automotive Mechanical Design Process');
#235=PRODUCT_CONTEXT('part definition',#234,'mechanical');
#236=PRODUCT('Magnet_Plate','Magnet_Plate v6',$,(#235));
#237=PRESENTATION_STYLE_ASSIGNMENT((#238));
#238=SURFACE_STYLE_USAGE(.BOTH.,#239);
#239=SURFACE_SIDE_STYLE('',(#240));
#240=SURFACE_STYLE_FILL_AREA(#241);
#241=FILL_AREA_STYLE('Acier - Satin\X\E9',(#242));
#242=FILL_AREA_STYLE_COLOUR('Acier - Satin\X\E9',#243);
#243=COLOUR_RGB('Acier - Satin\X\E9',0.627450980392157,0.627450980392157,
0.627450980392157);
ENDSEC;
END-ISO-10303-21;
