ISO-10303-21;
HEADER;
/* Generated by software containing ST-Developer
 * from STEP Tools, Inc. (www.steptools.com) 
 */

FILE_DESCRIPTION(
/* description */ (''),
/* implementation_level */ '2;1');

FILE_NAME(
/* name */ 
'C:\\Users\\Nous\\Desktop\\construction\\chasse_chevre\\goupille.stp',
/* time_stamp */ '2024-06-17T12:45:23+02:00',
/* author */ ('Nous'),
/* organization */ (''),
/* preprocessor_version */ 'ST-DEVELOPER v17',
/* originating_system */ 'Autodesk Inventor 2019',
/* authorisation */ '');

FILE_SCHEMA (('AUTOMOTIVE_DESIGN { 1 0 10303 214 3 1 1 }'));
ENDSEC;

DATA;
#10=MECHANICAL_DESIGN_GEOMETRIC_PRESENTATION_REPRESENTATION('',(#13),#142);
#11=SHAPE_REPRESENTATION_RELATIONSHIP('SRR','None',#149,#12);
#12=ADVANCED_BREP_SHAPE_REPRESENTATION('',(#14),#141);
#13=STYLED_ITEM('',(#158),#14);
#14=MANIFOLD_SOLID_BREP('Solid1',#70);
#15=PLANE('',#95);
#16=PLANE('',#98);
#17=CYLINDRICAL_SURFACE('',#93,11.5);
#18=FACE_OUTER_BOUND('',#23,.T.);
#19=FACE_OUTER_BOUND('',#24,.T.);
#20=FACE_OUTER_BOUND('',#25,.T.);
#21=FACE_OUTER_BOUND('',#26,.T.);
#22=FACE_OUTER_BOUND('',#27,.T.);
#23=EDGE_LOOP('',(#49,#50,#51,#52));
#24=EDGE_LOOP('',(#53,#54,#55,#56));
#25=EDGE_LOOP('',(#57));
#26=EDGE_LOOP('',(#58,#59,#60,#61));
#27=EDGE_LOOP('',(#62));
#28=LINE('',#127,#31);
#29=LINE('',#131,#32);
#30=LINE('',#137,#33);
#31=VECTOR('',#105,11.35);
#32=VECTOR('',#110,11.5);
#33=VECTOR('',#119,11.);
#34=CIRCLE('',#91,11.2);
#35=CIRCLE('',#92,11.5);
#36=CIRCLE('',#94,11.5);
#37=CIRCLE('',#97,10.5);
#38=VERTEX_POINT('',#124);
#39=VERTEX_POINT('',#126);
#40=VERTEX_POINT('',#130);
#41=VERTEX_POINT('',#135);
#42=EDGE_CURVE('',#38,#38,#34,.T.);
#43=EDGE_CURVE('',#38,#39,#28,.T.);
#44=EDGE_CURVE('',#39,#39,#35,.T.);
#45=EDGE_CURVE('',#39,#40,#29,.T.);
#46=EDGE_CURVE('',#40,#40,#36,.T.);
#47=EDGE_CURVE('',#41,#41,#37,.T.);
#48=EDGE_CURVE('',#41,#40,#30,.T.);
#49=ORIENTED_EDGE('',*,*,#42,.T.);
#50=ORIENTED_EDGE('',*,*,#43,.T.);
#51=ORIENTED_EDGE('',*,*,#44,.T.);
#52=ORIENTED_EDGE('',*,*,#43,.F.);
#53=ORIENTED_EDGE('',*,*,#44,.F.);
#54=ORIENTED_EDGE('',*,*,#45,.T.);
#55=ORIENTED_EDGE('',*,*,#46,.F.);
#56=ORIENTED_EDGE('',*,*,#45,.F.);
#57=ORIENTED_EDGE('',*,*,#42,.F.);
#58=ORIENTED_EDGE('',*,*,#47,.T.);
#59=ORIENTED_EDGE('',*,*,#48,.T.);
#60=ORIENTED_EDGE('',*,*,#46,.T.);
#61=ORIENTED_EDGE('',*,*,#48,.F.);
#62=ORIENTED_EDGE('',*,*,#47,.F.);
#63=CONICAL_SURFACE('',#90,11.35,0.785398163397452);
#64=CONICAL_SURFACE('',#96,11.,0.785398163397449);
#65=ADVANCED_FACE('',(#18),#63,.T.);
#66=ADVANCED_FACE('',(#19),#17,.T.);
#67=ADVANCED_FACE('',(#20),#15,.T.);
#68=ADVANCED_FACE('',(#21),#64,.T.);
#69=ADVANCED_FACE('',(#22),#16,.F.);
#70=CLOSED_SHELL('',(#65,#66,#67,#68,#69));
#71=DERIVED_UNIT_ELEMENT(#73,1.);
#72=DERIVED_UNIT_ELEMENT(#144,3.);
#73=(
MASS_UNIT()
NAMED_UNIT(*)
SI_UNIT($,.GRAM.)
);
#74=DERIVED_UNIT((#71,#72));
#75=MEASURE_REPRESENTATION_ITEM('density measure',
POSITIVE_RATIO_MEASURE(1.),#74);
#76=PROPERTY_DEFINITION_REPRESENTATION(#81,#78);
#77=PROPERTY_DEFINITION_REPRESENTATION(#82,#79);
#78=REPRESENTATION('material name',(#80),#141);
#79=REPRESENTATION('density',(#75),#141);
#80=DESCRIPTIVE_REPRESENTATION_ITEM('Generic','Generic');
#81=PROPERTY_DEFINITION('material property','material name',#151);
#82=PROPERTY_DEFINITION('material property','density of part',#151);
#83=DATE_TIME_ROLE('creation_date');
#84=APPLIED_DATE_AND_TIME_ASSIGNMENT(#85,#83,(#151));
#85=DATE_AND_TIME(#86,#87);
#86=CALENDAR_DATE(2024,17,6);
#87=LOCAL_TIME(12,1,12.,#88);
#88=COORDINATED_UNIVERSAL_TIME_OFFSET(0,0,.BEHIND.);
#89=AXIS2_PLACEMENT_3D('placement',#122,#99,#100);
#90=AXIS2_PLACEMENT_3D('',#123,#101,#102);
#91=AXIS2_PLACEMENT_3D('',#125,#103,#104);
#92=AXIS2_PLACEMENT_3D('',#128,#106,#107);
#93=AXIS2_PLACEMENT_3D('',#129,#108,#109);
#94=AXIS2_PLACEMENT_3D('',#132,#111,#112);
#95=AXIS2_PLACEMENT_3D('',#133,#113,#114);
#96=AXIS2_PLACEMENT_3D('',#134,#115,#116);
#97=AXIS2_PLACEMENT_3D('',#136,#117,#118);
#98=AXIS2_PLACEMENT_3D('',#138,#120,#121);
#99=DIRECTION('axis',(0.,0.,1.));
#100=DIRECTION('refdir',(1.,0.,0.));
#101=DIRECTION('center_axis',(0.,0.,-1.));
#102=DIRECTION('ref_axis',(-1.,0.,0.));
#103=DIRECTION('center_axis',(0.,0.,-1.));
#104=DIRECTION('ref_axis',(-1.,0.,0.));
#105=DIRECTION('',(0.70710678118655,8.65956056235497E-17,-0.707106781186545));
#106=DIRECTION('center_axis',(0.,0.,1.));
#107=DIRECTION('ref_axis',(-1.,0.,0.));
#108=DIRECTION('center_axis',(0.,0.,1.));
#109=DIRECTION('ref_axis',(-1.,0.,0.));
#110=DIRECTION('',(0.,0.,-1.));
#111=DIRECTION('center_axis',(0.,0.,-1.));
#112=DIRECTION('ref_axis',(-1.,0.,0.));
#113=DIRECTION('center_axis',(0.,0.,1.));
#114=DIRECTION('ref_axis',(1.,0.,0.));
#115=DIRECTION('center_axis',(0.,0.,1.));
#116=DIRECTION('ref_axis',(-1.,0.,0.));
#117=DIRECTION('center_axis',(0.,0.,1.));
#118=DIRECTION('ref_axis',(-1.,0.,0.));
#119=DIRECTION('',(0.707106781186548,-8.65956056235494E-17,0.707106781186547));
#120=DIRECTION('center_axis',(0.,0.,1.));
#121=DIRECTION('ref_axis',(1.,0.,0.));
#122=CARTESIAN_POINT('',(0.,0.,0.));
#123=CARTESIAN_POINT('Origin',(0.,-0.24908361124366,29.85));
#124=CARTESIAN_POINT('',(11.2,-0.249083611243662,30.));
#125=CARTESIAN_POINT('Origin',(0.,-0.24908361124366,30.));
#126=CARTESIAN_POINT('',(11.5,-0.249083611243659,29.7));
#127=CARTESIAN_POINT('',(11.35,-0.249083611243659,29.85));
#128=CARTESIAN_POINT('Origin',(0.,-0.24908361124366,29.7));
#129=CARTESIAN_POINT('Origin',(0.,-0.24908361124366,0.));
#130=CARTESIAN_POINT('',(11.5,-0.249083611243662,1.));
#131=CARTESIAN_POINT('',(11.5,-0.249083611243659,0.));
#132=CARTESIAN_POINT('Origin',(0.,-0.24908361124366,1.));
#133=CARTESIAN_POINT('Origin',(-4.39165760171957E-16,-0.24908361124366,
30.));
#134=CARTESIAN_POINT('Origin',(0.,-0.24908361124366,0.5));
#135=CARTESIAN_POINT('',(10.5,-0.249083611243659,0.));
#136=CARTESIAN_POINT('Origin',(0.,-0.24908361124366,0.));
#137=CARTESIAN_POINT('',(11.,-0.249083611243662,0.5));
#138=CARTESIAN_POINT('Origin',(-4.39165760171957E-16,-0.24908361124366,
0.));
#139=UNCERTAINTY_MEASURE_WITH_UNIT(LENGTH_MEASURE(0.01),#143,
'DISTANCE_ACCURACY_VALUE',
'Maximum model space distance between geometric entities at asserted c
onnectivities');
#140=UNCERTAINTY_MEASURE_WITH_UNIT(LENGTH_MEASURE(0.01),#143,
'DISTANCE_ACCURACY_VALUE',
'Maximum model space distance between geometric entities at asserted c
onnectivities');
#141=(
GEOMETRIC_REPRESENTATION_CONTEXT(3)
GLOBAL_UNCERTAINTY_ASSIGNED_CONTEXT((#139))
GLOBAL_UNIT_ASSIGNED_CONTEXT((#143,#146,#145))
REPRESENTATION_CONTEXT('','3D')
);
#142=(
GEOMETRIC_REPRESENTATION_CONTEXT(3)
GLOBAL_UNCERTAINTY_ASSIGNED_CONTEXT((#140))
GLOBAL_UNIT_ASSIGNED_CONTEXT((#143,#146,#145))
REPRESENTATION_CONTEXT('','3D')
);
#143=(
LENGTH_UNIT()
NAMED_UNIT(*)
SI_UNIT(.MILLI.,.METRE.)
);
#144=(
LENGTH_UNIT()
NAMED_UNIT(*)
SI_UNIT(.CENTI.,.METRE.)
);
#145=(
NAMED_UNIT(*)
SI_UNIT($,.STERADIAN.)
SOLID_ANGLE_UNIT()
);
#146=(
NAMED_UNIT(*)
PLANE_ANGLE_UNIT()
SI_UNIT($,.RADIAN.)
);
#147=SHAPE_DEFINITION_REPRESENTATION(#148,#149);
#148=PRODUCT_DEFINITION_SHAPE('',$,#151);
#149=SHAPE_REPRESENTATION('',(#89),#141);
#150=PRODUCT_DEFINITION_CONTEXT('part definition',#155,'design');
#151=PRODUCT_DEFINITION('goupille','goupille',#152,#150);
#152=PRODUCT_DEFINITION_FORMATION('',$,#157);
#153=PRODUCT_RELATED_PRODUCT_CATEGORY('goupille','goupille',(#157));
#154=APPLICATION_PROTOCOL_DEFINITION('international standard',
'automotive_design',2009,#155);
#155=APPLICATION_CONTEXT(
'Core Data for Automotive Mechanical Design Process');
#156=PRODUCT_CONTEXT('part definition',#155,'mechanical');
#157=PRODUCT('goupille','goupille',$,(#156));
#158=PRESENTATION_STYLE_ASSIGNMENT((#159));
#159=SURFACE_STYLE_USAGE(.BOTH.,#160);
#160=SURFACE_SIDE_STYLE('',(#161));
#161=SURFACE_STYLE_FILL_AREA(#162);
#162=FILL_AREA_STYLE('',(#163));
#163=FILL_AREA_STYLE_COLOUR('',#164);
#164=COLOUR_RGB('',0.749019607843137,0.749019607843137,0.749019607843137);
ENDSEC;
END-ISO-10303-21;
