ISO-10303-21;
HEADER;
/* Generated by software containing ST-Developer
 * from STEP Tools, Inc. (www.steptools.com) 
 */

FILE_DESCRIPTION(
/* description */ (''),
/* implementation_level */ '2;1');

FILE_NAME(
/* name */ 
'C:\\Users\\Nous\\Desktop\\construction\\chasse_chevre\\Puller.stp',
/* time_stamp */ '2024-06-17T12:45:11+02:00',
/* author */ ('Nous'),
/* organization */ (''),
/* preprocessor_version */ 'ST-DEVELOPER v17',
/* originating_system */ 'Autodesk Inventor 2019',
/* authorisation */ '');

FILE_SCHEMA (('AUTOMOTIVE_DESIGN { 1 0 10303 214 3 1 1 }'));
ENDSEC;

DATA;
#10=MECHANICAL_DESIGN_GEOMETRIC_PRESENTATION_REPRESENTATION('',(#13),#512);
#11=SHAPE_REPRESENTATION_RELATIONSHIP('SRR','None',#519,#12);
#12=ADVANCED_BREP_SHAPE_REPRESENTATION('',(#14),#511);
#13=STYLED_ITEM('',(#528),#14);
#14=MANIFOLD_SOLID_BREP('Solid1',#278);
#15=FACE_BOUND('',#50,.T.);
#16=FACE_BOUND('',#52,.T.);
#17=PLANE('',#313);
#18=PLANE('',#329);
#19=PLANE('',#333);
#20=PLANE('',#334);
#21=FACE_OUTER_BOUND('',#36,.T.);
#22=FACE_OUTER_BOUND('',#37,.T.);
#23=FACE_OUTER_BOUND('',#38,.T.);
#24=FACE_OUTER_BOUND('',#39,.T.);
#25=FACE_OUTER_BOUND('',#40,.T.);
#26=FACE_OUTER_BOUND('',#41,.T.);
#27=FACE_OUTER_BOUND('',#42,.T.);
#28=FACE_OUTER_BOUND('',#43,.T.);
#29=FACE_OUTER_BOUND('',#44,.T.);
#30=FACE_OUTER_BOUND('',#45,.T.);
#31=FACE_OUTER_BOUND('',#46,.T.);
#32=FACE_OUTER_BOUND('',#47,.T.);
#33=FACE_OUTER_BOUND('',#48,.T.);
#34=FACE_OUTER_BOUND('',#49,.T.);
#35=FACE_OUTER_BOUND('',#51,.T.);
#36=EDGE_LOOP('',(#174,#175,#176,#177));
#37=EDGE_LOOP('',(#178,#179,#180,#181));
#38=EDGE_LOOP('',(#182,#183,#184,#185));
#39=EDGE_LOOP('',(#186,#187,#188,#189));
#40=EDGE_LOOP('',(#190,#191,#192,#193));
#41=EDGE_LOOP('',(#194,#195,#196,#197));
#42=EDGE_LOOP('',(#198,#199,#200,#201));
#43=EDGE_LOOP('',(#202,#203,#204,#205));
#44=EDGE_LOOP('',(#206,#207,#208,#209));
#45=EDGE_LOOP('',(#210,#211,#212,#213));
#46=EDGE_LOOP('',(#214,#215,#216,#217));
#47=EDGE_LOOP('',(#218,#219,#220,#221));
#48=EDGE_LOOP('',(#222,#223,#224,#225));
#49=EDGE_LOOP('',(#226,#227,#228,#229,#230,#231,#232,#233,#234,#235,#236,
#237));
#50=EDGE_LOOP('',(#238));
#51=EDGE_LOOP('',(#239,#240,#241,#242,#243,#244,#245,#246,#247,#248,#249,
#250));
#52=EDGE_LOOP('',(#251));
#53=LINE('',#433,#70);
#54=LINE('',#440,#71);
#55=LINE('',#443,#72);
#56=LINE('',#449,#73);
#57=LINE('',#455,#74);
#58=LINE('',#461,#75);
#59=LINE('',#464,#76);
#60=LINE('',#466,#77);
#61=LINE('',#467,#78);
#62=LINE('',#473,#79);
#63=LINE('',#479,#80);
#64=LINE('',#485,#81);
#65=LINE('',#491,#82);
#66=LINE('',#497,#83);
#67=LINE('',#500,#84);
#68=LINE('',#502,#85);
#69=LINE('',#503,#86);
#70=VECTOR('',#341,6.5);
#71=VECTOR('',#348,10.);
#72=VECTOR('',#351,10.);
#73=VECTOR('',#358,10.);
#74=VECTOR('',#365,10.);
#75=VECTOR('',#372,10.);
#76=VECTOR('',#375,10.);
#77=VECTOR('',#376,10.);
#78=VECTOR('',#377,10.);
#79=VECTOR('',#384,10.);
#80=VECTOR('',#391,10.);
#81=VECTOR('',#398,10.);
#82=VECTOR('',#405,10.);
#83=VECTOR('',#412,10.);
#84=VECTOR('',#415,10.);
#85=VECTOR('',#416,10.);
#86=VECTOR('',#417,10.);
#87=CIRCLE('',#299,6.5);
#88=CIRCLE('',#300,6.5);
#89=CIRCLE('',#302,13.2002747232013);
#90=CIRCLE('',#303,13.2002747232013);
#91=CIRCLE('',#305,5.);
#92=CIRCLE('',#306,5.);
#93=CIRCLE('',#308,13.2002747232013);
#94=CIRCLE('',#309,13.2002747232013);
#95=CIRCLE('',#311,13.460762024673);
#96=CIRCLE('',#312,13.460762024673);
#97=CIRCLE('',#315,13.460762024673);
#98=CIRCLE('',#316,13.460762024673);
#99=CIRCLE('',#318,13.2002747232013);
#100=CIRCLE('',#319,13.2002747232013);
#101=CIRCLE('',#321,5.);
#102=CIRCLE('',#322,5.);
#103=CIRCLE('',#324,13.2002747232013);
#104=CIRCLE('',#325,13.2002747232013);
#105=CIRCLE('',#327,13.460762024673);
#106=CIRCLE('',#328,13.460762024673);
#107=CIRCLE('',#331,13.460762024673);
#108=CIRCLE('',#332,13.460762024673);
#109=VERTEX_POINT('',#430);
#110=VERTEX_POINT('',#432);
#111=VERTEX_POINT('',#436);
#112=VERTEX_POINT('',#437);
#113=VERTEX_POINT('',#439);
#114=VERTEX_POINT('',#441);
#115=VERTEX_POINT('',#445);
#116=VERTEX_POINT('',#447);
#117=VERTEX_POINT('',#451);
#118=VERTEX_POINT('',#453);
#119=VERTEX_POINT('',#457);
#120=VERTEX_POINT('',#459);
#121=VERTEX_POINT('',#463);
#122=VERTEX_POINT('',#465);
#123=VERTEX_POINT('',#469);
#124=VERTEX_POINT('',#471);
#125=VERTEX_POINT('',#475);
#126=VERTEX_POINT('',#477);
#127=VERTEX_POINT('',#481);
#128=VERTEX_POINT('',#483);
#129=VERTEX_POINT('',#487);
#130=VERTEX_POINT('',#489);
#131=VERTEX_POINT('',#493);
#132=VERTEX_POINT('',#495);
#133=VERTEX_POINT('',#499);
#134=VERTEX_POINT('',#501);
#135=EDGE_CURVE('',#109,#109,#87,.T.);
#136=EDGE_CURVE('',#109,#110,#53,.T.);
#137=EDGE_CURVE('',#110,#110,#88,.T.);
#138=EDGE_CURVE('',#111,#112,#89,.T.);
#139=EDGE_CURVE('',#111,#113,#54,.T.);
#140=EDGE_CURVE('',#114,#113,#90,.T.);
#141=EDGE_CURVE('',#112,#114,#55,.T.);
#142=EDGE_CURVE('',#112,#115,#91,.T.);
#143=EDGE_CURVE('',#116,#114,#92,.T.);
#144=EDGE_CURVE('',#115,#116,#56,.T.);
#145=EDGE_CURVE('',#115,#117,#93,.T.);
#146=EDGE_CURVE('',#118,#116,#94,.T.);
#147=EDGE_CURVE('',#117,#118,#57,.T.);
#148=EDGE_CURVE('',#117,#119,#95,.T.);
#149=EDGE_CURVE('',#120,#118,#96,.T.);
#150=EDGE_CURVE('',#119,#120,#58,.T.);
#151=EDGE_CURVE('',#119,#121,#59,.T.);
#152=EDGE_CURVE('',#122,#120,#60,.T.);
#153=EDGE_CURVE('',#121,#122,#61,.T.);
#154=EDGE_CURVE('',#121,#123,#97,.T.);
#155=EDGE_CURVE('',#124,#122,#98,.T.);
#156=EDGE_CURVE('',#123,#124,#62,.T.);
#157=EDGE_CURVE('',#123,#125,#99,.T.);
#158=EDGE_CURVE('',#126,#124,#100,.T.);
#159=EDGE_CURVE('',#125,#126,#63,.T.);
#160=EDGE_CURVE('',#125,#127,#101,.T.);
#161=EDGE_CURVE('',#128,#126,#102,.T.);
#162=EDGE_CURVE('',#127,#128,#64,.T.);
#163=EDGE_CURVE('',#127,#129,#103,.T.);
#164=EDGE_CURVE('',#130,#128,#104,.T.);
#165=EDGE_CURVE('',#129,#130,#65,.T.);
#166=EDGE_CURVE('',#129,#131,#105,.T.);
#167=EDGE_CURVE('',#132,#130,#106,.T.);
#168=EDGE_CURVE('',#131,#132,#66,.T.);
#169=EDGE_CURVE('',#131,#133,#67,.T.);
#170=EDGE_CURVE('',#134,#132,#68,.T.);
#171=EDGE_CURVE('',#133,#134,#69,.T.);
#172=EDGE_CURVE('',#133,#111,#107,.T.);
#173=EDGE_CURVE('',#113,#134,#108,.T.);
#174=ORIENTED_EDGE('',*,*,#135,.F.);
#175=ORIENTED_EDGE('',*,*,#136,.T.);
#176=ORIENTED_EDGE('',*,*,#137,.F.);
#177=ORIENTED_EDGE('',*,*,#136,.F.);
#178=ORIENTED_EDGE('',*,*,#138,.F.);
#179=ORIENTED_EDGE('',*,*,#139,.T.);
#180=ORIENTED_EDGE('',*,*,#140,.F.);
#181=ORIENTED_EDGE('',*,*,#141,.F.);
#182=ORIENTED_EDGE('',*,*,#142,.F.);
#183=ORIENTED_EDGE('',*,*,#141,.T.);
#184=ORIENTED_EDGE('',*,*,#143,.F.);
#185=ORIENTED_EDGE('',*,*,#144,.F.);
#186=ORIENTED_EDGE('',*,*,#145,.F.);
#187=ORIENTED_EDGE('',*,*,#144,.T.);
#188=ORIENTED_EDGE('',*,*,#146,.F.);
#189=ORIENTED_EDGE('',*,*,#147,.F.);
#190=ORIENTED_EDGE('',*,*,#148,.F.);
#191=ORIENTED_EDGE('',*,*,#147,.T.);
#192=ORIENTED_EDGE('',*,*,#149,.F.);
#193=ORIENTED_EDGE('',*,*,#150,.F.);
#194=ORIENTED_EDGE('',*,*,#151,.F.);
#195=ORIENTED_EDGE('',*,*,#150,.T.);
#196=ORIENTED_EDGE('',*,*,#152,.F.);
#197=ORIENTED_EDGE('',*,*,#153,.F.);
#198=ORIENTED_EDGE('',*,*,#154,.F.);
#199=ORIENTED_EDGE('',*,*,#153,.T.);
#200=ORIENTED_EDGE('',*,*,#155,.F.);
#201=ORIENTED_EDGE('',*,*,#156,.F.);
#202=ORIENTED_EDGE('',*,*,#157,.F.);
#203=ORIENTED_EDGE('',*,*,#156,.T.);
#204=ORIENTED_EDGE('',*,*,#158,.F.);
#205=ORIENTED_EDGE('',*,*,#159,.F.);
#206=ORIENTED_EDGE('',*,*,#160,.F.);
#207=ORIENTED_EDGE('',*,*,#159,.T.);
#208=ORIENTED_EDGE('',*,*,#161,.F.);
#209=ORIENTED_EDGE('',*,*,#162,.F.);
#210=ORIENTED_EDGE('',*,*,#163,.F.);
#211=ORIENTED_EDGE('',*,*,#162,.T.);
#212=ORIENTED_EDGE('',*,*,#164,.F.);
#213=ORIENTED_EDGE('',*,*,#165,.F.);
#214=ORIENTED_EDGE('',*,*,#166,.F.);
#215=ORIENTED_EDGE('',*,*,#165,.T.);
#216=ORIENTED_EDGE('',*,*,#167,.F.);
#217=ORIENTED_EDGE('',*,*,#168,.F.);
#218=ORIENTED_EDGE('',*,*,#169,.F.);
#219=ORIENTED_EDGE('',*,*,#168,.T.);
#220=ORIENTED_EDGE('',*,*,#170,.F.);
#221=ORIENTED_EDGE('',*,*,#171,.F.);
#222=ORIENTED_EDGE('',*,*,#172,.F.);
#223=ORIENTED_EDGE('',*,*,#171,.T.);
#224=ORIENTED_EDGE('',*,*,#173,.F.);
#225=ORIENTED_EDGE('',*,*,#139,.F.);
#226=ORIENTED_EDGE('',*,*,#172,.T.);
#227=ORIENTED_EDGE('',*,*,#138,.T.);
#228=ORIENTED_EDGE('',*,*,#142,.T.);
#229=ORIENTED_EDGE('',*,*,#145,.T.);
#230=ORIENTED_EDGE('',*,*,#148,.T.);
#231=ORIENTED_EDGE('',*,*,#151,.T.);
#232=ORIENTED_EDGE('',*,*,#154,.T.);
#233=ORIENTED_EDGE('',*,*,#157,.T.);
#234=ORIENTED_EDGE('',*,*,#160,.T.);
#235=ORIENTED_EDGE('',*,*,#163,.T.);
#236=ORIENTED_EDGE('',*,*,#166,.T.);
#237=ORIENTED_EDGE('',*,*,#169,.T.);
#238=ORIENTED_EDGE('',*,*,#135,.T.);
#239=ORIENTED_EDGE('',*,*,#173,.T.);
#240=ORIENTED_EDGE('',*,*,#170,.T.);
#241=ORIENTED_EDGE('',*,*,#167,.T.);
#242=ORIENTED_EDGE('',*,*,#164,.T.);
#243=ORIENTED_EDGE('',*,*,#161,.T.);
#244=ORIENTED_EDGE('',*,*,#158,.T.);
#245=ORIENTED_EDGE('',*,*,#155,.T.);
#246=ORIENTED_EDGE('',*,*,#152,.T.);
#247=ORIENTED_EDGE('',*,*,#149,.T.);
#248=ORIENTED_EDGE('',*,*,#146,.T.);
#249=ORIENTED_EDGE('',*,*,#143,.T.);
#250=ORIENTED_EDGE('',*,*,#140,.T.);
#251=ORIENTED_EDGE('',*,*,#137,.T.);
#252=CYLINDRICAL_SURFACE('',#298,6.5);
#253=CYLINDRICAL_SURFACE('',#301,13.2002747232013);
#254=CYLINDRICAL_SURFACE('',#304,5.);
#255=CYLINDRICAL_SURFACE('',#307,13.2002747232013);
#256=CYLINDRICAL_SURFACE('',#310,13.460762024673);
#257=CYLINDRICAL_SURFACE('',#314,13.460762024673);
#258=CYLINDRICAL_SURFACE('',#317,13.2002747232013);
#259=CYLINDRICAL_SURFACE('',#320,5.);
#260=CYLINDRICAL_SURFACE('',#323,13.2002747232013);
#261=CYLINDRICAL_SURFACE('',#326,13.460762024673);
#262=CYLINDRICAL_SURFACE('',#330,13.460762024673);
#263=ADVANCED_FACE('',(#21),#252,.F.);
#264=ADVANCED_FACE('',(#22),#253,.F.);
#265=ADVANCED_FACE('',(#23),#254,.T.);
#266=ADVANCED_FACE('',(#24),#255,.F.);
#267=ADVANCED_FACE('',(#25),#256,.T.);
#268=ADVANCED_FACE('',(#26),#17,.T.);
#269=ADVANCED_FACE('',(#27),#257,.T.);
#270=ADVANCED_FACE('',(#28),#258,.F.);
#271=ADVANCED_FACE('',(#29),#259,.T.);
#272=ADVANCED_FACE('',(#30),#260,.F.);
#273=ADVANCED_FACE('',(#31),#261,.T.);
#274=ADVANCED_FACE('',(#32),#18,.T.);
#275=ADVANCED_FACE('',(#33),#262,.T.);
#276=ADVANCED_FACE('',(#34,#15),#19,.F.);
#277=ADVANCED_FACE('',(#35,#16),#20,.T.);
#278=CLOSED_SHELL('',(#263,#264,#265,#266,#267,#268,#269,#270,#271,#272,
#273,#274,#275,#276,#277));
#279=DERIVED_UNIT_ELEMENT(#281,1.);
#280=DERIVED_UNIT_ELEMENT(#514,3.);
#281=(
MASS_UNIT()
NAMED_UNIT(*)
SI_UNIT($,.GRAM.)
);
#282=DERIVED_UNIT((#279,#280));
#283=MEASURE_REPRESENTATION_ITEM('density measure',
POSITIVE_RATIO_MEASURE(1.),#282);
#284=PROPERTY_DEFINITION_REPRESENTATION(#289,#286);
#285=PROPERTY_DEFINITION_REPRESENTATION(#290,#287);
#286=REPRESENTATION('material name',(#288),#511);
#287=REPRESENTATION('density',(#283),#511);
#288=DESCRIPTIVE_REPRESENTATION_ITEM('Generic','Generic');
#289=PROPERTY_DEFINITION('material property','material name',#521);
#290=PROPERTY_DEFINITION('material property','density of part',#521);
#291=DATE_TIME_ROLE('creation_date');
#292=APPLIED_DATE_AND_TIME_ASSIGNMENT(#293,#291,(#521));
#293=DATE_AND_TIME(#294,#295);
#294=CALENDAR_DATE(2024,17,6);
#295=LOCAL_TIME(12,26,29.,#296);
#296=COORDINATED_UNIVERSAL_TIME_OFFSET(0,0,.BEHIND.);
#297=AXIS2_PLACEMENT_3D('placement',#428,#335,#336);
#298=AXIS2_PLACEMENT_3D('',#429,#337,#338);
#299=AXIS2_PLACEMENT_3D('',#431,#339,#340);
#300=AXIS2_PLACEMENT_3D('',#434,#342,#343);
#301=AXIS2_PLACEMENT_3D('',#435,#344,#345);
#302=AXIS2_PLACEMENT_3D('',#438,#346,#347);
#303=AXIS2_PLACEMENT_3D('',#442,#349,#350);
#304=AXIS2_PLACEMENT_3D('',#444,#352,#353);
#305=AXIS2_PLACEMENT_3D('',#446,#354,#355);
#306=AXIS2_PLACEMENT_3D('',#448,#356,#357);
#307=AXIS2_PLACEMENT_3D('',#450,#359,#360);
#308=AXIS2_PLACEMENT_3D('',#452,#361,#362);
#309=AXIS2_PLACEMENT_3D('',#454,#363,#364);
#310=AXIS2_PLACEMENT_3D('',#456,#366,#367);
#311=AXIS2_PLACEMENT_3D('',#458,#368,#369);
#312=AXIS2_PLACEMENT_3D('',#460,#370,#371);
#313=AXIS2_PLACEMENT_3D('',#462,#373,#374);
#314=AXIS2_PLACEMENT_3D('',#468,#378,#379);
#315=AXIS2_PLACEMENT_3D('',#470,#380,#381);
#316=AXIS2_PLACEMENT_3D('',#472,#382,#383);
#317=AXIS2_PLACEMENT_3D('',#474,#385,#386);
#318=AXIS2_PLACEMENT_3D('',#476,#387,#388);
#319=AXIS2_PLACEMENT_3D('',#478,#389,#390);
#320=AXIS2_PLACEMENT_3D('',#480,#392,#393);
#321=AXIS2_PLACEMENT_3D('',#482,#394,#395);
#322=AXIS2_PLACEMENT_3D('',#484,#396,#397);
#323=AXIS2_PLACEMENT_3D('',#486,#399,#400);
#324=AXIS2_PLACEMENT_3D('',#488,#401,#402);
#325=AXIS2_PLACEMENT_3D('',#490,#403,#404);
#326=AXIS2_PLACEMENT_3D('',#492,#406,#407);
#327=AXIS2_PLACEMENT_3D('',#494,#408,#409);
#328=AXIS2_PLACEMENT_3D('',#496,#410,#411);
#329=AXIS2_PLACEMENT_3D('',#498,#413,#414);
#330=AXIS2_PLACEMENT_3D('',#504,#418,#419);
#331=AXIS2_PLACEMENT_3D('',#505,#420,#421);
#332=AXIS2_PLACEMENT_3D('',#506,#422,#423);
#333=AXIS2_PLACEMENT_3D('',#507,#424,#425);
#334=AXIS2_PLACEMENT_3D('',#508,#426,#427);
#335=DIRECTION('axis',(0.,0.,1.));
#336=DIRECTION('refdir',(1.,0.,0.));
#337=DIRECTION('center_axis',(0.,0.,1.));
#338=DIRECTION('ref_axis',(-1.,0.,0.));
#339=DIRECTION('center_axis',(0.,0.,1.));
#340=DIRECTION('ref_axis',(-1.,0.,0.));
#341=DIRECTION('',(0.,0.,1.));
#342=DIRECTION('center_axis',(0.,0.,-1.));
#343=DIRECTION('ref_axis',(-1.,0.,0.));
#344=DIRECTION('center_axis',(0.,0.,1.));
#345=DIRECTION('ref_axis',(0.504885168268867,-0.863186519161483,0.));
#346=DIRECTION('center_axis',(0.,0.,1.));
#347=DIRECTION('ref_axis',(0.504885168268867,-0.863186519161483,0.));
#348=DIRECTION('',(0.,0.,1.));
#349=DIRECTION('center_axis',(0.,0.,-1.));
#350=DIRECTION('ref_axis',(0.504885168268867,-0.863186519161483,0.));
#351=DIRECTION('',(0.,0.,1.));
#352=DIRECTION('center_axis',(0.,0.,1.));
#353=DIRECTION('ref_axis',(-0.961523947640823,-0.274721127897377,0.));
#354=DIRECTION('center_axis',(0.,0.,-1.));
#355=DIRECTION('ref_axis',(-0.961523947640823,-0.274721127897377,0.));
#356=DIRECTION('center_axis',(0.,0.,1.));
#357=DIRECTION('ref_axis',(-0.961523947640823,-0.274721127897377,0.));
#358=DIRECTION('',(0.,0.,1.));
#359=DIRECTION('center_axis',(0.,0.,1.));
#360=DIRECTION('ref_axis',(-0.961523947640823,-0.274721127897377,0.));
#361=DIRECTION('center_axis',(0.,0.,1.));
#362=DIRECTION('ref_axis',(-0.961523947640823,-0.274721127897377,0.));
#363=DIRECTION('center_axis',(0.,0.,-1.));
#364=DIRECTION('ref_axis',(-0.961523947640823,-0.274721127897377,0.));
#365=DIRECTION('',(0.,0.,1.));
#366=DIRECTION('center_axis',(0.,0.,1.));
#367=DIRECTION('ref_axis',(-1.,0.,0.));
#368=DIRECTION('center_axis',(0.,0.,-1.));
#369=DIRECTION('ref_axis',(-1.,0.,0.));
#370=DIRECTION('center_axis',(0.,0.,1.));
#371=DIRECTION('ref_axis',(-1.,0.,0.));
#372=DIRECTION('',(0.,0.,1.));
#373=DIRECTION('center_axis',(1.,0.,0.));
#374=DIRECTION('ref_axis',(0.,1.,0.));
#375=DIRECTION('',(0.,-1.,0.));
#376=DIRECTION('',(0.,1.,0.));
#377=DIRECTION('',(0.,0.,1.));
#378=DIRECTION('center_axis',(0.,0.,1.));
#379=DIRECTION('ref_axis',(-0.504885168268869,0.863186519161482,0.));
#380=DIRECTION('center_axis',(0.,0.,-1.));
#381=DIRECTION('ref_axis',(-0.504885168268869,0.863186519161482,0.));
#382=DIRECTION('center_axis',(0.,0.,1.));
#383=DIRECTION('ref_axis',(-0.504885168268869,0.863186519161482,0.));
#384=DIRECTION('',(0.,0.,1.));
#385=DIRECTION('center_axis',(0.,0.,1.));
#386=DIRECTION('ref_axis',(-0.504885168268868,0.863186519161482,0.));
#387=DIRECTION('center_axis',(0.,0.,1.));
#388=DIRECTION('ref_axis',(-0.504885168268868,0.863186519161482,0.));
#389=DIRECTION('center_axis',(0.,0.,-1.));
#390=DIRECTION('ref_axis',(-0.504885168268868,0.863186519161482,0.));
#391=DIRECTION('',(0.,0.,1.));
#392=DIRECTION('center_axis',(0.,0.,1.));
#393=DIRECTION('ref_axis',(0.961523947640823,0.274721127897378,0.));
#394=DIRECTION('center_axis',(0.,0.,-1.));
#395=DIRECTION('ref_axis',(0.961523947640823,0.274721127897378,0.));
#396=DIRECTION('center_axis',(0.,0.,1.));
#397=DIRECTION('ref_axis',(0.961523947640823,0.274721127897378,0.));
#398=DIRECTION('',(0.,0.,1.));
#399=DIRECTION('center_axis',(0.,0.,1.));
#400=DIRECTION('ref_axis',(0.961523947640823,0.274721127897378,0.));
#401=DIRECTION('center_axis',(0.,0.,1.));
#402=DIRECTION('ref_axis',(0.961523947640823,0.274721127897378,0.));
#403=DIRECTION('center_axis',(0.,0.,-1.));
#404=DIRECTION('ref_axis',(0.961523947640823,0.274721127897378,0.));
#405=DIRECTION('',(0.,0.,1.));
#406=DIRECTION('center_axis',(0.,0.,1.));
#407=DIRECTION('ref_axis',(1.,0.,0.));
#408=DIRECTION('center_axis',(0.,0.,-1.));
#409=DIRECTION('ref_axis',(1.,0.,0.));
#410=DIRECTION('center_axis',(0.,0.,1.));
#411=DIRECTION('ref_axis',(1.,0.,0.));
#412=DIRECTION('',(0.,0.,1.));
#413=DIRECTION('center_axis',(-1.,0.,0.));
#414=DIRECTION('ref_axis',(0.,-1.,0.));
#415=DIRECTION('',(0.,1.,0.));
#416=DIRECTION('',(0.,-1.,0.));
#417=DIRECTION('',(0.,0.,1.));
#418=DIRECTION('center_axis',(0.,0.,1.));
#419=DIRECTION('ref_axis',(0.504885168268869,-0.863186519161483,0.));
#420=DIRECTION('center_axis',(0.,0.,-1.));
#421=DIRECTION('ref_axis',(0.504885168268869,-0.863186519161483,0.));
#422=DIRECTION('center_axis',(0.,0.,1.));
#423=DIRECTION('ref_axis',(0.504885168268869,-0.863186519161483,0.));
#424=DIRECTION('center_axis',(0.,0.,1.));
#425=DIRECTION('ref_axis',(1.,0.,0.));
#426=DIRECTION('center_axis',(0.,0.,1.));
#427=DIRECTION('ref_axis',(1.,0.,0.));
#428=CARTESIAN_POINT('',(0.,0.,0.));
#429=CARTESIAN_POINT('Origin',(17.5,31.5,0.));
#430=CARTESIAN_POINT('',(24.,31.5,0.));
#431=CARTESIAN_POINT('Origin',(17.5,31.5,0.));
#432=CARTESIAN_POINT('',(24.,31.5,18.));
#433=CARTESIAN_POINT('',(24.,31.5,0.));
#434=CARTESIAN_POINT('Origin',(17.5,31.5,18.));
#435=CARTESIAN_POINT('Origin',(0.,63.,0.));
#436=CARTESIAN_POINT('',(6.66462292481877,51.6057008097046,0.));
#437=CARTESIAN_POINT('',(12.6923802617959,59.3736056394869,0.));
#438=CARTESIAN_POINT('Origin',(0.,63.,0.));
#439=CARTESIAN_POINT('',(6.66462292481877,51.6057008097046,18.));
#440=CARTESIAN_POINT('',(6.66462292481877,51.6057008097046,0.));
#441=CARTESIAN_POINT('',(12.6923802617959,59.3736056394869,18.));
#442=CARTESIAN_POINT('Origin',(0.,63.,18.));
#443=CARTESIAN_POINT('',(12.6923802617959,59.3736056394869,0.));
#444=CARTESIAN_POINT('Origin',(17.5,58.,0.));
#445=CARTESIAN_POINT('',(22.3076197382041,59.3736056394869,0.));
#446=CARTESIAN_POINT('Origin',(17.5,58.,0.));
#447=CARTESIAN_POINT('',(22.3076197382041,59.3736056394869,18.));
#448=CARTESIAN_POINT('Origin',(17.5,58.,18.));
#449=CARTESIAN_POINT('',(22.3076197382041,59.3736056394869,0.));
#450=CARTESIAN_POINT('Origin',(35.,63.,0.));
#451=CARTESIAN_POINT('',(28.3353770751812,51.6057008097046,0.));
#452=CARTESIAN_POINT('Origin',(35.,63.,0.));
#453=CARTESIAN_POINT('',(28.3353770751812,51.6057008097046,18.));
#454=CARTESIAN_POINT('Origin',(35.,63.,18.));
#455=CARTESIAN_POINT('',(28.3353770751812,51.6057008097046,0.));
#456=CARTESIAN_POINT('Origin',(21.539237975327,39.986552492366,0.));
#457=CARTESIAN_POINT('',(35.,39.986552492366,0.));
#458=CARTESIAN_POINT('Origin',(21.539237975327,39.986552492366,0.));
#459=CARTESIAN_POINT('',(35.,39.986552492366,18.));
#460=CARTESIAN_POINT('Origin',(21.539237975327,39.986552492366,18.));
#461=CARTESIAN_POINT('',(35.,39.986552492366,0.));
#462=CARTESIAN_POINT('Origin',(35.,23.013447507634,0.));
#463=CARTESIAN_POINT('',(35.,23.013447507634,0.));
#464=CARTESIAN_POINT('',(35.,39.986552492366,0.));
#465=CARTESIAN_POINT('',(35.,23.013447507634,18.));
#466=CARTESIAN_POINT('',(35.,39.986552492366,18.));
#467=CARTESIAN_POINT('',(35.,23.013447507634,0.));
#468=CARTESIAN_POINT('Origin',(21.539237975327,23.013447507634,0.));
#469=CARTESIAN_POINT('',(28.3353770751812,11.3942991902954,0.));
#470=CARTESIAN_POINT('Origin',(21.539237975327,23.013447507634,0.));
#471=CARTESIAN_POINT('',(28.3353770751812,11.3942991902954,18.));
#472=CARTESIAN_POINT('Origin',(21.539237975327,23.013447507634,18.));
#473=CARTESIAN_POINT('',(28.3353770751812,11.3942991902954,0.));
#474=CARTESIAN_POINT('Origin',(35.,0.,0.));
#475=CARTESIAN_POINT('',(22.3076197382041,3.6263943605131,0.));
#476=CARTESIAN_POINT('Origin',(35.,0.,0.));
#477=CARTESIAN_POINT('',(22.3076197382041,3.6263943605131,18.));
#478=CARTESIAN_POINT('Origin',(35.,0.,18.));
#479=CARTESIAN_POINT('',(22.3076197382041,3.6263943605131,0.));
#480=CARTESIAN_POINT('Origin',(17.5,4.99999999999999,0.));
#481=CARTESIAN_POINT('',(12.6923802617959,3.6263943605131,0.));
#482=CARTESIAN_POINT('Origin',(17.5,4.99999999999999,0.));
#483=CARTESIAN_POINT('',(12.6923802617959,3.6263943605131,18.));
#484=CARTESIAN_POINT('Origin',(17.5,4.99999999999999,18.));
#485=CARTESIAN_POINT('',(12.6923802617959,3.6263943605131,0.));
#486=CARTESIAN_POINT('Origin',(0.,0.,0.));
#487=CARTESIAN_POINT('',(6.66462292481877,11.3942991902955,0.));
#488=CARTESIAN_POINT('Origin',(0.,0.,0.));
#489=CARTESIAN_POINT('',(6.66462292481877,11.3942991902955,18.));
#490=CARTESIAN_POINT('Origin',(0.,0.,18.));
#491=CARTESIAN_POINT('',(6.66462292481877,11.3942991902955,0.));
#492=CARTESIAN_POINT('Origin',(13.460762024673,23.013447507634,0.));
#493=CARTESIAN_POINT('',(-6.66133814775094E-15,23.013447507634,0.));
#494=CARTESIAN_POINT('Origin',(13.460762024673,23.013447507634,0.));
#495=CARTESIAN_POINT('',(-6.66133814775094E-15,23.013447507634,18.));
#496=CARTESIAN_POINT('Origin',(13.460762024673,23.013447507634,18.));
#497=CARTESIAN_POINT('',(-6.66133814775094E-15,23.013447507634,0.));
#498=CARTESIAN_POINT('Origin',(-6.66133814775094E-15,39.986552492366,0.));
#499=CARTESIAN_POINT('',(-6.66133814775094E-15,39.986552492366,0.));
#500=CARTESIAN_POINT('',(-6.66133814775094E-15,23.013447507634,0.));
#501=CARTESIAN_POINT('',(-6.66133814775094E-15,39.986552492366,18.));
#502=CARTESIAN_POINT('',(-6.66133814775094E-15,23.013447507634,18.));
#503=CARTESIAN_POINT('',(-6.66133814775094E-15,39.986552492366,0.));
#504=CARTESIAN_POINT('Origin',(13.460762024673,39.986552492366,0.));
#505=CARTESIAN_POINT('Origin',(13.460762024673,39.986552492366,0.));
#506=CARTESIAN_POINT('Origin',(13.460762024673,39.986552492366,18.));
#507=CARTESIAN_POINT('Origin',(17.5,31.5,0.));
#508=CARTESIAN_POINT('Origin',(17.5,31.5,18.));
#509=UNCERTAINTY_MEASURE_WITH_UNIT(LENGTH_MEASURE(0.01),#513,
'DISTANCE_ACCURACY_VALUE',
'Maximum model space distance between geometric entities at asserted c
onnectivities');
#510=UNCERTAINTY_MEASURE_WITH_UNIT(LENGTH_MEASURE(0.01),#513,
'DISTANCE_ACCURACY_VALUE',
'Maximum model space distance between geometric entities at asserted c
onnectivities');
#511=(
GEOMETRIC_REPRESENTATION_CONTEXT(3)
GLOBAL_UNCERTAINTY_ASSIGNED_CONTEXT((#509))
GLOBAL_UNIT_ASSIGNED_CONTEXT((#513,#516,#515))
REPRESENTATION_CONTEXT('','3D')
);
#512=(
GEOMETRIC_REPRESENTATION_CONTEXT(3)
GLOBAL_UNCERTAINTY_ASSIGNED_CONTEXT((#510))
GLOBAL_UNIT_ASSIGNED_CONTEXT((#513,#516,#515))
REPRESENTATION_CONTEXT('','3D')
);
#513=(
LENGTH_UNIT()
NAMED_UNIT(*)
SI_UNIT(.MILLI.,.METRE.)
);
#514=(
LENGTH_UNIT()
NAMED_UNIT(*)
SI_UNIT(.CENTI.,.METRE.)
);
#515=(
NAMED_UNIT(*)
SI_UNIT($,.STERADIAN.)
SOLID_ANGLE_UNIT()
);
#516=(
NAMED_UNIT(*)
PLANE_ANGLE_UNIT()
SI_UNIT($,.RADIAN.)
);
#517=SHAPE_DEFINITION_REPRESENTATION(#518,#519);
#518=PRODUCT_DEFINITION_SHAPE('',$,#521);
#519=SHAPE_REPRESENTATION('',(#297),#511);
#520=PRODUCT_DEFINITION_CONTEXT('part definition',#525,'design');
#521=PRODUCT_DEFINITION('Puller','Puller',#522,#520);
#522=PRODUCT_DEFINITION_FORMATION('',$,#527);
#523=PRODUCT_RELATED_PRODUCT_CATEGORY('Puller','Puller',(#527));
#524=APPLICATION_PROTOCOL_DEFINITION('international standard',
'automotive_design',2009,#525);
#525=APPLICATION_CONTEXT(
'Core Data for Automotive Mechanical Design Process');
#526=PRODUCT_CONTEXT('part definition',#525,'mechanical');
#527=PRODUCT('Puller','Puller',$,(#526));
#528=PRESENTATION_STYLE_ASSIGNMENT((#529));
#529=SURFACE_STYLE_USAGE(.BOTH.,#530);
#530=SURFACE_SIDE_STYLE('',(#531));
#531=SURFACE_STYLE_FILL_AREA(#532);
#532=FILL_AREA_STYLE('',(#533));
#533=FILL_AREA_STYLE_COLOUR('',#534);
#534=COLOUR_RGB('',0.749019607843137,0.749019607843137,0.749019607843137);
ENDSEC;
END-ISO-10303-21;
