ISO-10303-21;
HEADER;
/* Generated by software containing ST-Developer
 * from STEP Tools, Inc. (www.steptools.com) 
 */

FILE_DESCRIPTION(
/* description */ (''),
/* implementation_level */ '2;1');

FILE_NAME(
/* name */ 'Slot Wheel Guide Bracket - Alu sheet.step',
/* time_stamp */ '2024-06-07T18:44:29+02:00',
/* author */ (''),
/* organization */ (''),
/* preprocessor_version */ 'ST-DEVELOPER v20',
/* originating_system */ 'Autodesk Translation Framework v13.14.0.145',

/* authorisation */ '');

FILE_SCHEMA (('AUTOMOTIVE_DESIGN { 1 0 10303 214 3 1 1 }'));
ENDSEC;

DATA;
#10=MECHANICAL_DESIGN_GEOMETRIC_PRESENTATION_REPRESENTATION('',(#13),#300);
#11=SHAPE_REPRESENTATION_RELATIONSHIP('SRR','None',#307,#12);
#12=ADVANCED_BREP_SHAPE_REPRESENTATION('',(#14),#299);
#13=STYLED_ITEM('',(#316),#14);
#14=MANIFOLD_SOLID_BREP('Body1',#176);
#15=CYLINDRICAL_SURFACE('',#196,1.1);
#16=CYLINDRICAL_SURFACE('',#198,1.1);
#17=CYLINDRICAL_SURFACE('',#200,1.1);
#18=FACE_BOUND('',#41,.T.);
#19=FACE_BOUND('',#42,.T.);
#20=FACE_BOUND('',#43,.T.);
#21=FACE_BOUND('',#51,.T.);
#22=FACE_BOUND('',#52,.T.);
#23=FACE_BOUND('',#53,.T.);
#24=CIRCLE('',#192,1.1);
#25=CIRCLE('',#193,1.1);
#26=CIRCLE('',#194,1.1);
#27=CIRCLE('',#197,1.1);
#28=CIRCLE('',#199,1.1);
#29=CIRCLE('',#201,1.1);
#30=FACE_OUTER_BOUND('',#39,.T.);
#31=FACE_OUTER_BOUND('',#40,.T.);
#32=FACE_OUTER_BOUND('',#44,.T.);
#33=FACE_OUTER_BOUND('',#45,.T.);
#34=FACE_OUTER_BOUND('',#46,.T.);
#35=FACE_OUTER_BOUND('',#47,.T.);
#36=FACE_OUTER_BOUND('',#48,.T.);
#37=FACE_OUTER_BOUND('',#49,.T.);
#38=FACE_OUTER_BOUND('',#50,.T.);
#39=EDGE_LOOP('',(#119,#120,#121,#122));
#40=EDGE_LOOP('',(#123,#124,#125,#126));
#41=EDGE_LOOP('',(#127));
#42=EDGE_LOOP('',(#128));
#43=EDGE_LOOP('',(#129));
#44=EDGE_LOOP('',(#130,#131,#132,#133));
#45=EDGE_LOOP('',(#134,#135,#136,#137));
#46=EDGE_LOOP('',(#138,#139,#140,#141));
#47=EDGE_LOOP('',(#142,#143,#144,#145));
#48=EDGE_LOOP('',(#146,#147,#148,#149));
#49=EDGE_LOOP('',(#150,#151,#152,#153));
#50=EDGE_LOOP('',(#154,#155,#156,#157));
#51=EDGE_LOOP('',(#158));
#52=EDGE_LOOP('',(#159));
#53=EDGE_LOOP('',(#160));
#54=LINE('',#256,#69);
#55=LINE('',#258,#70);
#56=LINE('',#260,#71);
#57=LINE('',#261,#72);
#58=LINE('',#264,#73);
#59=LINE('',#266,#74);
#60=LINE('',#267,#75);
#61=LINE('',#276,#76);
#62=LINE('',#277,#77);
#63=LINE('',#281,#78);
#64=LINE('',#285,#79);
#65=LINE('',#289,#80);
#66=LINE('',#292,#81);
#67=LINE('',#293,#82);
#68=LINE('',#295,#83);
#69=VECTOR('',#209,10.);
#70=VECTOR('',#210,10.);
#71=VECTOR('',#211,10.);
#72=VECTOR('',#212,10.);
#73=VECTOR('',#215,10.);
#74=VECTOR('',#216,10.);
#75=VECTOR('',#217,10.);
#76=VECTOR('',#226,10.);
#77=VECTOR('',#227,10.);
#78=VECTOR('',#232,1.1);
#79=VECTOR('',#237,1.1);
#80=VECTOR('',#242,1.1);
#81=VECTOR('',#245,10.);
#82=VECTOR('',#246,10.);
#83=VECTOR('',#249,10.);
#84=VERTEX_POINT('',#254);
#85=VERTEX_POINT('',#255);
#86=VERTEX_POINT('',#257);
#87=VERTEX_POINT('',#259);
#88=VERTEX_POINT('',#263);
#89=VERTEX_POINT('',#265);
#90=VERTEX_POINT('',#268);
#91=VERTEX_POINT('',#270);
#92=VERTEX_POINT('',#272);
#93=VERTEX_POINT('',#275);
#94=VERTEX_POINT('',#279);
#95=VERTEX_POINT('',#283);
#96=VERTEX_POINT('',#287);
#97=VERTEX_POINT('',#291);
#98=EDGE_CURVE('',#84,#85,#54,.T.);
#99=EDGE_CURVE('',#85,#86,#55,.T.);
#100=EDGE_CURVE('',#86,#87,#56,.T.);
#101=EDGE_CURVE('',#87,#84,#57,.T.);
#102=EDGE_CURVE('',#86,#88,#58,.T.);
#103=EDGE_CURVE('',#88,#89,#59,.T.);
#104=EDGE_CURVE('',#89,#87,#60,.T.);
#105=EDGE_CURVE('',#90,#90,#24,.T.);
#106=EDGE_CURVE('',#91,#91,#25,.T.);
#107=EDGE_CURVE('',#92,#92,#26,.T.);
#108=EDGE_CURVE('',#85,#93,#61,.T.);
#109=EDGE_CURVE('',#93,#88,#62,.T.);
#110=EDGE_CURVE('',#94,#94,#27,.T.);
#111=EDGE_CURVE('',#94,#92,#63,.T.);
#112=EDGE_CURVE('',#95,#95,#28,.T.);
#113=EDGE_CURVE('',#95,#91,#64,.T.);
#114=EDGE_CURVE('',#96,#96,#29,.T.);
#115=EDGE_CURVE('',#96,#90,#65,.T.);
#116=EDGE_CURVE('',#93,#97,#66,.T.);
#117=EDGE_CURVE('',#97,#89,#67,.T.);
#118=EDGE_CURVE('',#97,#84,#68,.T.);
#119=ORIENTED_EDGE('',*,*,#98,.T.);
#120=ORIENTED_EDGE('',*,*,#99,.T.);
#121=ORIENTED_EDGE('',*,*,#100,.T.);
#122=ORIENTED_EDGE('',*,*,#101,.T.);
#123=ORIENTED_EDGE('',*,*,#102,.T.);
#124=ORIENTED_EDGE('',*,*,#103,.T.);
#125=ORIENTED_EDGE('',*,*,#104,.T.);
#126=ORIENTED_EDGE('',*,*,#100,.F.);
#127=ORIENTED_EDGE('',*,*,#105,.T.);
#128=ORIENTED_EDGE('',*,*,#106,.T.);
#129=ORIENTED_EDGE('',*,*,#107,.T.);
#130=ORIENTED_EDGE('',*,*,#108,.T.);
#131=ORIENTED_EDGE('',*,*,#109,.T.);
#132=ORIENTED_EDGE('',*,*,#102,.F.);
#133=ORIENTED_EDGE('',*,*,#99,.F.);
#134=ORIENTED_EDGE('',*,*,#110,.F.);
#135=ORIENTED_EDGE('',*,*,#111,.T.);
#136=ORIENTED_EDGE('',*,*,#107,.F.);
#137=ORIENTED_EDGE('',*,*,#111,.F.);
#138=ORIENTED_EDGE('',*,*,#112,.F.);
#139=ORIENTED_EDGE('',*,*,#113,.T.);
#140=ORIENTED_EDGE('',*,*,#106,.F.);
#141=ORIENTED_EDGE('',*,*,#113,.F.);
#142=ORIENTED_EDGE('',*,*,#114,.F.);
#143=ORIENTED_EDGE('',*,*,#115,.T.);
#144=ORIENTED_EDGE('',*,*,#105,.F.);
#145=ORIENTED_EDGE('',*,*,#115,.F.);
#146=ORIENTED_EDGE('',*,*,#116,.T.);
#147=ORIENTED_EDGE('',*,*,#117,.T.);
#148=ORIENTED_EDGE('',*,*,#103,.F.);
#149=ORIENTED_EDGE('',*,*,#109,.F.);
#150=ORIENTED_EDGE('',*,*,#104,.F.);
#151=ORIENTED_EDGE('',*,*,#117,.F.);
#152=ORIENTED_EDGE('',*,*,#118,.T.);
#153=ORIENTED_EDGE('',*,*,#101,.F.);
#154=ORIENTED_EDGE('',*,*,#118,.F.);
#155=ORIENTED_EDGE('',*,*,#116,.F.);
#156=ORIENTED_EDGE('',*,*,#108,.F.);
#157=ORIENTED_EDGE('',*,*,#98,.F.);
#158=ORIENTED_EDGE('',*,*,#110,.T.);
#159=ORIENTED_EDGE('',*,*,#112,.T.);
#160=ORIENTED_EDGE('',*,*,#114,.T.);
#161=PLANE('',#190);
#162=PLANE('',#191);
#163=PLANE('',#195);
#164=PLANE('',#202);
#165=PLANE('',#203);
#166=PLANE('',#204);
#167=ADVANCED_FACE('',(#30),#161,.T.);
#168=ADVANCED_FACE('',(#31,#18,#19,#20),#162,.T.);
#169=ADVANCED_FACE('',(#32),#163,.T.);
#170=ADVANCED_FACE('',(#33),#15,.F.);
#171=ADVANCED_FACE('',(#34),#16,.F.);
#172=ADVANCED_FACE('',(#35),#17,.F.);
#173=ADVANCED_FACE('',(#36),#164,.T.);
#174=ADVANCED_FACE('',(#37),#165,.T.);
#175=ADVANCED_FACE('',(#38,#21,#22,#23),#166,.F.);
#176=CLOSED_SHELL('',(#167,#168,#169,#170,#171,#172,#173,#174,#175));
#177=DERIVED_UNIT_ELEMENT(#179,1.);
#178=DERIVED_UNIT_ELEMENT(#302,-3.);
#179=(
MASS_UNIT()
NAMED_UNIT(*)
SI_UNIT(.KILO.,.GRAM.)
);
#180=DERIVED_UNIT((#177,#178));
#181=MEASURE_REPRESENTATION_ITEM('density measure',
POSITIVE_RATIO_MEASURE(7850.),#180);
#182=PROPERTY_DEFINITION_REPRESENTATION(#187,#184);
#183=PROPERTY_DEFINITION_REPRESENTATION(#188,#185);
#184=REPRESENTATION('material name',(#186),#299);
#185=REPRESENTATION('density',(#181),#299);
#186=DESCRIPTIVE_REPRESENTATION_ITEM('Steel','Steel');
#187=PROPERTY_DEFINITION('material property','material name',#309);
#188=PROPERTY_DEFINITION('material property','density of part',#309);
#189=AXIS2_PLACEMENT_3D('',#252,#205,#206);
#190=AXIS2_PLACEMENT_3D('',#253,#207,#208);
#191=AXIS2_PLACEMENT_3D('',#262,#213,#214);
#192=AXIS2_PLACEMENT_3D('',#269,#218,#219);
#193=AXIS2_PLACEMENT_3D('',#271,#220,#221);
#194=AXIS2_PLACEMENT_3D('',#273,#222,#223);
#195=AXIS2_PLACEMENT_3D('',#274,#224,#225);
#196=AXIS2_PLACEMENT_3D('',#278,#228,#229);
#197=AXIS2_PLACEMENT_3D('',#280,#230,#231);
#198=AXIS2_PLACEMENT_3D('',#282,#233,#234);
#199=AXIS2_PLACEMENT_3D('',#284,#235,#236);
#200=AXIS2_PLACEMENT_3D('',#286,#238,#239);
#201=AXIS2_PLACEMENT_3D('',#288,#240,#241);
#202=AXIS2_PLACEMENT_3D('',#290,#243,#244);
#203=AXIS2_PLACEMENT_3D('',#294,#247,#248);
#204=AXIS2_PLACEMENT_3D('',#296,#250,#251);
#205=DIRECTION('axis',(0.,0.,1.));
#206=DIRECTION('refdir',(1.,0.,0.));
#207=DIRECTION('center_axis',(0.,0.,-1.));
#208=DIRECTION('ref_axis',(-1.,0.,0.));
#209=DIRECTION('',(0.,1.,0.));
#210=DIRECTION('',(1.,0.,0.));
#211=DIRECTION('',(0.,-1.,0.));
#212=DIRECTION('',(-1.,0.,0.));
#213=DIRECTION('center_axis',(1.,0.,0.));
#214=DIRECTION('ref_axis',(0.,0.,-1.));
#215=DIRECTION('',(0.,-1.66169956913026E-16,1.));
#216=DIRECTION('',(0.,-1.,0.));
#217=DIRECTION('',(0.,0.,-1.));
#218=DIRECTION('center_axis',(-1.,0.,0.));
#219=DIRECTION('ref_axis',(0.,-1.,0.));
#220=DIRECTION('center_axis',(-1.,0.,0.));
#221=DIRECTION('ref_axis',(0.,-1.,0.));
#222=DIRECTION('center_axis',(-1.,0.,0.));
#223=DIRECTION('ref_axis',(0.,-1.,0.));
#224=DIRECTION('center_axis',(0.,1.,1.66169956913026E-16));
#225=DIRECTION('ref_axis',(0.,-1.66169956913026E-16,1.));
#226=DIRECTION('',(0.,-1.66169956913026E-16,1.));
#227=DIRECTION('',(1.,0.,0.));
#228=DIRECTION('center_axis',(1.,0.,0.));
#229=DIRECTION('ref_axis',(0.,-1.,0.));
#230=DIRECTION('center_axis',(1.,0.,0.));
#231=DIRECTION('ref_axis',(0.,-1.,0.));
#232=DIRECTION('',(1.,0.,0.));
#233=DIRECTION('center_axis',(1.,0.,0.));
#234=DIRECTION('ref_axis',(0.,-1.,0.));
#235=DIRECTION('center_axis',(1.,0.,0.));
#236=DIRECTION('ref_axis',(0.,-1.,0.));
#237=DIRECTION('',(1.,0.,0.));
#238=DIRECTION('center_axis',(1.,0.,0.));
#239=DIRECTION('ref_axis',(0.,-1.,0.));
#240=DIRECTION('center_axis',(1.,0.,0.));
#241=DIRECTION('ref_axis',(0.,-1.,0.));
#242=DIRECTION('',(1.,0.,0.));
#243=DIRECTION('center_axis',(0.,0.,1.));
#244=DIRECTION('ref_axis',(0.,-1.,0.));
#245=DIRECTION('',(0.,-1.,0.));
#246=DIRECTION('',(1.,0.,0.));
#247=DIRECTION('center_axis',(0.,-1.,-1.66169956913026E-16));
#248=DIRECTION('ref_axis',(0.,1.66169956913026E-16,-1.));
#249=DIRECTION('',(0.,1.66169956913026E-16,-1.));
#250=DIRECTION('center_axis',(1.,0.,0.));
#251=DIRECTION('ref_axis',(0.,1.,0.));
#252=CARTESIAN_POINT('',(0.,0.,0.));
#253=CARTESIAN_POINT('Origin',(23.5,29.4303039929153,-20.7));
#254=CARTESIAN_POINT('',(23.5,29.4303039929153,-20.7));
#255=CARTESIAN_POINT('',(23.5,36.9303039929153,-20.7));
#256=CARTESIAN_POINT('',(23.5,31.3053039929153,-20.7));
#257=CARTESIAN_POINT('',(25.5,36.9303039929153,-20.7));
#258=CARTESIAN_POINT('',(23.5,36.9303039929153,-20.7));
#259=CARTESIAN_POINT('',(25.5,29.4303039929153,-20.7));
#260=CARTESIAN_POINT('',(25.5,31.3053039929153,-20.7));
#261=CARTESIAN_POINT('',(23.5,29.4303039929153,-20.7));
#262=CARTESIAN_POINT('Origin',(25.5,33.1803039929153,87.65));
#263=CARTESIAN_POINT('',(25.5,36.9303039929153,88.9));
#264=CARTESIAN_POINT('',(25.5,36.9303039929153,-18.));
#265=CARTESIAN_POINT('',(25.5,29.4303039929153,88.9));
#266=CARTESIAN_POINT('',(25.5,36.9303039929153,88.9));
#267=CARTESIAN_POINT('',(25.5,29.4303039929153,-17.7));
#268=CARTESIAN_POINT('',(25.5,33.0303039929153,-5.20000000000002));
#269=CARTESIAN_POINT('Origin',(25.5,31.9303039929153,-5.20000000000002));
#270=CARTESIAN_POINT('',(25.5,33.0303039929153,34.55));
#271=CARTESIAN_POINT('Origin',(25.5,31.9303039929153,34.55));
#272=CARTESIAN_POINT('',(25.5,33.0303039929153,76.4));
#273=CARTESIAN_POINT('Origin',(25.5,31.9303039929153,76.4));
#274=CARTESIAN_POINT('Origin',(23.5,36.9303039929153,86.4));
#275=CARTESIAN_POINT('',(23.5,36.9303039929153,88.9));
#276=CARTESIAN_POINT('',(23.5,36.9303039929153,-18.));
#277=CARTESIAN_POINT('',(23.5,36.9303039929153,88.9));
#278=CARTESIAN_POINT('Origin',(22.3,31.9303039929153,76.4));
#279=CARTESIAN_POINT('',(23.5,33.0303039929153,76.4));
#280=CARTESIAN_POINT('Origin',(23.5,31.9303039929153,76.4));
#281=CARTESIAN_POINT('',(22.3,33.0303039929153,76.4));
#282=CARTESIAN_POINT('Origin',(22.3,31.9303039929153,34.55));
#283=CARTESIAN_POINT('',(23.5,33.0303039929153,34.55));
#284=CARTESIAN_POINT('Origin',(23.5,31.9303039929153,34.55));
#285=CARTESIAN_POINT('',(22.3,33.0303039929153,34.55));
#286=CARTESIAN_POINT('Origin',(22.3,31.9303039929153,-5.20000000000002));
#287=CARTESIAN_POINT('',(23.5,33.0303039929153,-5.20000000000002));
#288=CARTESIAN_POINT('Origin',(23.5,31.9303039929153,-5.20000000000002));
#289=CARTESIAN_POINT('',(22.3,33.0303039929153,-5.20000000000002));
#290=CARTESIAN_POINT('Origin',(23.5,36.9303039929153,88.9));
#291=CARTESIAN_POINT('',(23.5,29.4303039929153,88.9));
#292=CARTESIAN_POINT('',(23.5,36.9303039929153,88.9));
#293=CARTESIAN_POINT('',(23.5,29.4303039929153,88.9));
#294=CARTESIAN_POINT('Origin',(23.5,29.4303039929153,88.9));
#295=CARTESIAN_POINT('',(23.5,29.4303039929153,88.9));
#296=CARTESIAN_POINT('Origin',(23.5,33.1803039929153,87.65));
#297=UNCERTAINTY_MEASURE_WITH_UNIT(LENGTH_MEASURE(0.01),#301,
'DISTANCE_ACCURACY_VALUE',
'Maximum model space distance between geometric entities at asserted c
onnectivities');
#298=UNCERTAINTY_MEASURE_WITH_UNIT(LENGTH_MEASURE(0.01),#301,
'DISTANCE_ACCURACY_VALUE',
'Maximum model space distance between geometric entities at asserted c
onnectivities');
#299=(
GEOMETRIC_REPRESENTATION_CONTEXT(3)
GLOBAL_UNCERTAINTY_ASSIGNED_CONTEXT((#297))
GLOBAL_UNIT_ASSIGNED_CONTEXT((#301,#303,#304))
REPRESENTATION_CONTEXT('','3D')
);
#300=(
GEOMETRIC_REPRESENTATION_CONTEXT(3)
GLOBAL_UNCERTAINTY_ASSIGNED_CONTEXT((#298))
GLOBAL_UNIT_ASSIGNED_CONTEXT((#301,#303,#304))
REPRESENTATION_CONTEXT('','3D')
);
#301=(
LENGTH_UNIT()
NAMED_UNIT(*)
SI_UNIT(.MILLI.,.METRE.)
);
#302=(
LENGTH_UNIT()
NAMED_UNIT(*)
SI_UNIT($,.METRE.)
);
#303=(
NAMED_UNIT(*)
PLANE_ANGLE_UNIT()
SI_UNIT($,.RADIAN.)
);
#304=(
NAMED_UNIT(*)
SI_UNIT($,.STERADIAN.)
SOLID_ANGLE_UNIT()
);
#305=SHAPE_DEFINITION_REPRESENTATION(#306,#307);
#306=PRODUCT_DEFINITION_SHAPE('',$,#309);
#307=SHAPE_REPRESENTATION('',(#189),#299);
#308=PRODUCT_DEFINITION_CONTEXT('part definition',#313,'design');
#309=PRODUCT_DEFINITION('Slot Wheel Guide Bracket - Alu sheet',
'Slot Wheel Guide Bracket - Alu sheet',#310,#308);
#310=PRODUCT_DEFINITION_FORMATION('',$,#315);
#311=PRODUCT_RELATED_PRODUCT_CATEGORY(
'Slot Wheel Guide Bracket - Alu sheet',
'Slot Wheel Guide Bracket - Alu sheet',(#315));
#312=APPLICATION_PROTOCOL_DEFINITION('international standard',
'automotive_design',2009,#313);
#313=APPLICATION_CONTEXT(
'Core Data for Automotive Mechanical Design Process');
#314=PRODUCT_CONTEXT('part definition',#313,'mechanical');
#315=PRODUCT('Slot Wheel Guide Bracket - Alu sheet',
'Slot Wheel Guide Bracket - Alu sheet',$,(#314));
#316=PRESENTATION_STYLE_ASSIGNMENT((#317));
#317=SURFACE_STYLE_USAGE(.BOTH.,#318);
#318=SURFACE_SIDE_STYLE('',(#319));
#319=SURFACE_STYLE_FILL_AREA(#320);
#320=FILL_AREA_STYLE('Steel - Satin',(#321));
#321=FILL_AREA_STYLE_COLOUR('Steel - Satin',#322);
#322=COLOUR_RGB('Steel - Satin',0.627450980392157,0.627450980392157,0.627450980392157);
ENDSEC;
END-ISO-10303-21;
